Beneath All the Stars In the Sky (WWRobson Version) (Monster Hunter) Guitar Tab

Submitted: Aug 19, 2016 by Coolbreeze

5
Average: 5 (7 votes)
Download | Listen
Game: Monster Hunter
Composer(s): Mitsuhiko Takano, Tetsuya Shibata, Masato Koda
Style: Arrangement, Artificial harmonics, Fingerstyle, Transcription

AutoScroll: Slow | Medium | Fast
				Beneath All the Stars In the Sky
				         Monster Hunter

Music by Masato Koda, Tetsuya Shibata, Mitsuhiko Takano
Arranged and Performed by WWRobson
Tabbed by Coolbreeze
Capo : Fret 1
Tempo = 78


                             ^                                                
     H        E  E  E  E     E  E    H.              E  E  E  E  E  E  E  E   
E||-----------------------|--0-----<>5------------|--------------------------|
B||-----------3--------3--|--0--------------------|--3--------3--2-----3-----|
G||-----------------0-----|--2--2-----------------|--------0-----------------|
D||--------------4--------|-----------------------|-----0-----------0-----0--|
A||-----------2-----------|--4--------------------|--------------------------|
E||-----------------------|-----------------------|--0-----------------------|


  Q.     E  E  E  E  E     E  E  E  E  E  E  Q       Q    Q.     E  E  E   
------------------------|--------------0----------|-----------------------|
------------------------|--------3----------------|--------------2--------|
--2---------0-----------|--0-----------------2----|--0--------------2-----|
---------0--------4-----|-----0-----0-----2-------|--0----4------------4--|
---------------0-----0--|--------------4----------|-------5---------4-----|
--2---------------------|--0----------------------|-----------------------|


  E  E  E  E  Q     E  E     E  E  E  E  E  E  E  E   
--------------------2-----|--------------------------|
--3--------3--2/----------|--0--------0--------3-----|
--------0-----------------|--------0--0--2-----------|
-----4-----------------0--|-----0--0--------0-----0--|
--2-----------0-----------|--------------------------|
--------------------------|--3-----------2-----------|


                                                       ^                      
  E  E  E  E  E  E  E  E     E  E  E  E  E  E  Q       Q    E  E  Q    E  E   
--5-----3-----2-----------|--0-----------------2----|--2-------0-------------|
--------------------3-----|--0--------0--------2----|--3-------0--0----------|
-----0-----0-----0-----0--|--------1-----3----------|-------0----------------|
--------------0-----------|-----2-----------2-------|---------------------0--|
--------------------------|--4----------------------|------------------------|
--0-----------------------|--------------2----------|--3---------------3-----|


  E  E  E  E  E  E  E  E     Q    E  S S E  E  E  S S  
--------------------5-----|--5-------3-2-0------------|
--------------3-----------|-----------------------3-2-|
--------2--------------0--|-------0-------------------|
-----0-----0-----0--------|--------------------2------|
--------------------------|-----------------1---------|
--2-----------------------|--0------------------------|


             ^                                                                 
  Q    E  E  E  E  E  E     E  E  E  E  E  E  S  S E     Q.     E  Q    E  E   
--0----------------------|----------------------------|-----------------------|
-------------3-----------|--2-----0-----2-----2h-3----|-----------------------|
----------2--2-----------|--------------------0-------|--2---------0----------|
-------4-----4--4--4-----|-----0-----0-----0-------0--|---------0-------4-----|
--2----------------5--0--|----------------------------|--------------------0--|
-------------------------|--4-----------3-------------|--2---------1----------|


                                       ^                                      
  Q    E  E  Q    E  E     E  E  E  E  Q    Q       E  E  E  E  S S E  E  E   
------------------------|------------------------|---------------------------|
--0-------0-------2--4--|--2--------2-------2----|--3--------3--2---------3--|
------------------------|--------4-----3---------|--------0-------0----0-----|
-------0----------------|-----2--------2---------|-----0------------0--------|
-------------4----------|------------------------|---------------------------|
--4---------------------|--2-----------2---------|--0------------------------|


                                                       ^               ^     
  Q    E  E  E  E  E  E     E  E  E  E  E  E  E  E     Q.     E  E  E  Q     
-------------------------|--------------0-----------|--3---------------7----|
-------------------------|--------3-----------------|--3---------7-----7----|
--2-------2--0-----------|--0-----------------2--0--|--0---------8----------|
-------0-----------4-----|-----0-----0-----2--------|---------0-----7-------|
-------------------------|--------------4-----------|--3--------------------|
--2-------------2-----2--|--0-----------------------|------------7----------|


        ^                          ^                  
  E  E  E  E  E  E  E  E     E  E  E  E  E  E  E  E   
--------------------------|--------------------------|
--7-----5-----3--------0--|--5-----3-----------------|
--------4-----------6-----|--------2-----2-----------|
-----4-----4-----3-----0--|-----2-----2--1-----4-----|
--------------------------|-----------------3-----3--|
--4-----------3-----------|--2-----------1-----1-----|


                                        ^         
  E  E  E  E  E  S S E  E     Q.     E  H         
---------------------------|---------------------|
--------------0---------0--|--3---------2--------|
-----------0-----0---0-----|------------0--------|
--------0----------4-------|---------2-----------|
-----2---------------------|--0------------------|
--0------------------------|---------------------|


  E  E  E  E  S S S S S S S S    E  E  E  E  S S S S S S E   
------------------------------|-----------------------------|
--3--------3--------3-----3---|-----------3------3-----3----|
--------0-----2-0-------0---2-|--------2-------0-----0------|
-----0------------2---2-------|-----2--------4-----4-----4--|
------------------------------|-----------------------------|
--0---------------------------|--2--------------------------|


              ^                                   
  E  E  E  E  Q      Q         W                  
--------------0----<>5----|--<>L----------------||
--3--------3--0-----------|---------------------||
--------0--0--2-----------|---------------------||
-----4-----4--------------|---------------------||
--------------4-----------|---------------------||
--0-----------------------|---------------------||
Login or Register to remove this ad.

3 comments on Beneath All the Stars In the Sky (WWRobson Version)

That was so pretty!

5

That was so pretty!

Great

5

EDIT
Played this tab so much that now I like even the bars I didnt like at all lol
Wonderful job

Finally

5

I had been waiting for this tab for so long! Whoever pt this up, thank you so much, it's great :)