Ads

Watashi no Monogatari (Monogatari Series Second Season) Guitar Tab

Submitted: Oct 18, 2020 by rowel.eshan (Last updated: Nov 08, 2020)

5
Average: 5 (1 vote)
Download | Listen
Game: Monogatari Series Second Season
Composer(s): Satoru KĊsaki
Style: Alternate picking, Fingerstyle

This song is also called my story

AutoScroll: Slow | Medium | Fast
E |--------5-----------5-----------5-----------5-------|
B |-----3-----3-----3-----3-----3-----3-----3-----3----|
G |--------------------------0-----------0-------------|
D |--0-----------0-------------------------------------|
A |----------------------------------------------------|
E |----------------------------------------------------|


--------5-----------5-----------5-----------5------|||
-----3-----3-----3-----3-----3-----3-----3-----3---|||
--4-----------4-----------3-----------3-----------o|||
--------------------------------------------------o|||
---------------------------------------------------|||
---------------------------------------------------|||

E |--------5-----------5-----------5-----------5-------|
B |-----3-----3-----3-----3-----3-----3-----3-----3----|
G |--------------------------0-----------0-------------|
D |--0-----------0-------------------------------------|
A |----------------------------------------------------|
E |----------------------------------------------------|


--------5-----------5-----------5-----------5------|||
-----3-----3-----3-----3-----3-----3-----3-----3---|||
--4-----------4-----------3-----------3-----------o|||
--------------------------------------------------o|||
---------------------------------------------------|||
---------------------------------------------------|||

Login or Register to remove this ad.