Mousou Express (Monogatari Series Second Season) Guitar Tab

Submitted: Feb 01, 2018 by Ttegdap

5
Average: 5 (1 vote)
Download | Listen
Game: Monogatari Series Second Season
Composer(s): Satoru KĊsaki
Style: Arrangement, Fingerstyle

AutoScroll: Slow | Medium | Fast
                               Delusion Express

     E  E  S S S Q    S S S S S    E  E  S S S Q    S Q     
E||--------------0--------------|--------------0-----------|
B||-----1--3-1--------3-3-1-1---|-----1--3-1--------3------|
G||--2---------2--------------2-|------------2-------------|
D||-----------------------------|--2-----------------------|
A||--0-----0--------------------|--------------------------|
E||--------------3------3-------|--1-----1-----0------0----|


  E  E  S S S Q    S S S S S    E  E  S E  E  S S S Q     
--------------0--------------|---------------------------|
-----1--3-1--------3-3-1-1---|-----1--3-1----------------|
--2---------2--------------2-|---------------------------|
-----------------------------|--2----------2-------------|
--0-----0--------------------|---------------------------|
--------------3------3-------|--1-----1----0--0-0-0-0----|


  E  E  E.  S Q    Q       Q    S S S E.  E  E  E     E  E  S S S E  E.  S E.   
------------------------|--0----------0------------|--------------0------------|
--------0-----1----3----|-------3-1----------3--1--|--0-----3-1----------0h1---|
--2---------------------|-----------2--------------|------------2----0---------|
-----2------------------|-----------------2--------|-----2---------------------|
--0-----0---------------|--------------------------|--0-----0------------------|
------------3------3----|--1----1-----0------0-----|--------------3------3-----|


  E  E  S E  E  S S S E  E     E  S S E  S S E  S S E  E   
----------------------------|---------------------0----0--|
-----1--3-1-----------------|-----0-1----1---1--3---------|
-------------------------2--|--2--------------------------|
--2----------2--------------|-----------------------------|
----------------------------|--0------0-------------------|
--1-----1----0--0-0-0-0-----|--------------3--------3-----|


  E  S S S E  E  S E  E  E     E  S S S E  E  E  S S E  S  
--0--0-0---3--2-------2-----|--1--1-3---1--0-----0---0--0-|
--------------3----3-----3--|-----------------1-----------|
-----------------2----------|-----------------------------|
--------------0-------0-----|--0------0------------2------|
----------------------------|--------------3--------------|
--1------1------------------|-----------------------------|


  E  S S S E  E  S E  E  E     S S S S E  S S S S S S E  E   
-----------2--0----1--0-----|-----------------------0----0--|
--4--4-4------0----0--0-----|--1---1-1----1---3-1-3---------|
--2-----------1----1--1--2--|----2--------------------------|
---------4----0-------------|-------------------------------|
--2-----------2-------------|--0-------0--------------------|
--------------0--0----------|---------------3---------3-----|


  E  S S S E  E  S E  E  E     E  S S S E  E  E  S E  S S  
--0--0-0---3--2-------2-----|--1--1-3---1--0-----0----0-0-|
--------------3----3-----3--|-----------------1-----------|
-----------------2----------|-----------------------------|
--------------0-------0-----|--0------0------------2------|
----------------------------|--------------3--------------|
--1------1------------------|-----------------------------|


  E  S S S E  Q    S Q       S S S S S S S S Q    E  E   
--2--2-4---0--5-----------|--5-5-5-5-5-5-5-5-5----5--7--|
--4-----------5-----------|--5-5-5-5-5-5-5-5-5----5-----|
--------------5-----------|--5-5-5-5-5-5-5-5-5----5-----|
--------------------------|-----------------------------|
--2-----------0------0----|-----------------------------|
---------0----------------|-----------------------------|


  E  E  E.  E  E  E.  E     E  E  E.  E  E  E.  E     E.  S S E  E  S E  E  E   
--8------------7--7------|--7------------5--5------|--5---3---1--4-------------|
--------5---------7------|------------------5------|------------------4--6--7--|
-----5------8-----8------|-----4--7---5-----5------|---------------------------|
------------------7------|-------------------------|----------------6----------|
--0-----0---------9------|------------0---------0--|---------------------------|
------------7-----7---7--|--0-----0----------------|--1-----1----4-------4-----|


  S S S S S E  S S E.  E  E     E  E  E.  E  E  E.  E   
--2-2-2-4---5--4-------5--7--|--8------------7--7------|
---------------3-------------|--------5---------7------|
---------------4---4---------|-----5------8-----8------|
--0-------0------------------|------------------7------|
-----------------------------|--0-----0---------9------|
---------------0-0-----0-----|------------7-----7---7--|


  E  E  E.  E  E  E.  E     E  S S S E  E  S E  E  E   
--7------------5--5------|--6--6-5--------------------|
------------------5------|-----------8--8-------6--8--|
-----4--7---5-----5------|-------------------8--------|
-------------------------|-----------------8----------|
------------0---------0--|--------------6-------6-----|
--0-----0----------------|--6------6------------------|


  S S S S S E   E  S  S  S S  S S S     E   S S  E.   S S  S  S  S E   E   
--5-5-5-7---8--10-------------------|------------------------------8--10--|
----------------------------------9-|--10--10-8-10---10-8-10-10-10--------|
---------------------------9----9---|-------------------------------------|
-------------------9-10-12---12-----|-----------------0------------0------|
------------------------------------|---0--------0------------------------|
--7-------7-----0----------0--------|-------------------------------------|


  E  S S E.  S S E  S S S E     E   S S  E.   S S  S  S  S E   E   
-----5-3-5---5-3-5--5-3-0----|-----------------------------8--10--|
-----------------------------|-----10-8-10---10-8-10-10-10--------|
-----------------------------|------------------------------------|
-----------------------------|----------------0------------0------|
-----------------------------|--0--------0------------------------|
--1------1---0--------0---0--|------------------------------------|


  E   S S S  S S S  S E   S E  E     E   S S  E.   S S  S  S  S E   E   
--8--10-8---10-8---10-8--10-------|-----------------------------8--10--|
----------------------------------|-----10-8-10---10-8-10-10-10--------|
----------------------------------|------------------------------------|
----------------------------------|----------------0------------0------|
--8-------8-----------------------|--0--------0------------------------|
-----------------0----------0--0--|------------------------------------|


  E  S S E.  S S S   S  S   S   S E     E   S S  E.   S S  S  S  S E   E   
-----5-3-5---5-8-8S-10-10S-11S-10----|-----------------------------8--10--|
-------------------------------------|-----10-8-10---10-8-10-10-10--------|
-------------------------------------|------------------------------------|
-------------------------------------|----------------0------------0------|
-------------------------------------|--0--------0------------------------|
--1------1---0--------------0-----0--|------------------------------------|


  E   S S S  S S S  S E   S E  E     Q    E  S E  E  S E  S S  
--8--10-8---10-8---10-8--10-------|--0----0--0-2--2--2-2--2-2-|
----------------------------------|--1----1--1-3--3--3-3--3-3-|
----------------------------------|--2----2--2-2--2--2-2--2-2-|
----------------------------------|--2----2--2-0--0--0-0--0-0-|
--8-------8-----------------------|--0----0--0----------------|
-----------------0----------0--0--|---------------------------|


  Q    E  S E  E  S E  S S    Q    E  S E  E  S E  S S  
--1----1--1-0--0--0-0--0-0-|--0----0--0-2--2--2-2--2-2-|
--1----1--1-0--0--0-0--0-0-|--1----1--1-3--3--3-3--3-3-|
--2----2--2-1--1--1-1--1-1-|--2----2--2-2--2--2-2--2-2-|
--3----3--3-0--0--0-0--0-0-|--2----2--2-0--0--0-0--0-0-|
--3----3--3-2--2--2-2--2-2-|--0----0--0----------------|
--1----1--1-0--0--0-0--0-0-|---------------------------|


  Q    E  S E  E  S S S S S   
--1----1--1-0--0--0-x-x-x-x-||
--1----1--1-0--0--0-x-x-x-x-||
--2----2--2-1--1--1-x-x-x-x-||
--3----3--3-0--0--0-x-x-x-x-||
--3----3--3-2--2--2-x-x-x-x-||
--1----1--1-0--0--0-x-x-x-x-||
Login or Register to remove this ad.