Ads

Tieria's Waltz (Mobile Suit Gundam 00) Guitar Tab

Submitted: Jun 22, 2012 by Lemoncobbler

5
Average: 5 (1 vote)
Download | Listen
Game: Mobile Suit Gundam 00
Composer(s): Kenji Kawai
Style: Arrangement, Fingerstyle

This song is also called The Ballroom

AutoScroll: Slow | Medium | Fast
Tieria's Waltz, (also known as Ballroom Theme)
Gundam 00
Composed by Kenji Kawai
Arranged by Lemoncobbler
June 21st, 2012


       Q    Q    Q       Q    Q    Q          Q    Q    Q       Q    Q    Q     
D#||------------------|------------------||---4--------------|-----------------|
A#||------------------|------------------||------------------|-----------------|
G ||*-----------------|-----------------*||*------------0----|------------0----|
D ||*-------0---------|-------0---------*||*-------0---------|-------0---------|
A ||------------------|------------------||------------------|-----------------|
D#||---4--------------|--4---------------||---4--------------|--4--------------|


  Q    Q    Q       Q    Q    Q          Q    Q    Q       Q    E  E  E  E   
--3--------------|--4---------------||------------------|-------------------|
-----------------|------------------||------------------|--4-------------4--|
------------0----|------------0----*||*-------0----3----|----------0--3-----|
-----------------|-------0---------*||*--0----0---------|-------0-----------|
-------6---------|------------------||------------------|-------------------|
--4--------------|--4---------------||---4--------------|--4----------------|


  Q    E  E  Q       Q    Q    Q       Q    Q    Q       Q    E  E  E  E   
------------------|-----------------|-----------------|-------------------|
--5-------4-------|--4---------4----|--3---------3----|--4----------------|
-------------6----|------------3----|-------2----2----|----------3--2--0--|
------------------|-------0---------|-------4---------|-------0-----------|
-------6----------|-----------------|-----------------|-------------------|
--4---------------|--4--------------|--3--------------|--4----------------|


  Q    Q    Q       E  E  Q    Q         Q    Q    Q         Q    Q    Q     
-----------------|-------------------||-----------------||------------------|
-----------------|-------------------||-----------------||------------------|
------------2----|--3--2--0----L----*||------------0----||*------------2----|
--4----1---------|--------0----L----*||-------0---------||*--4----1---------|
-----------------|-------------------||-----------------||------------------|
--0--------------|--4----------------||--4--------------||---3--------------|


  Q    Q    Q       Q    Q    Q       Q    Q    Q       Q    Q    Q     
-----------------|-----------------|-----------------|------------1----|
-----------------|--2---------4----|--4---------4----|--3---------3----|
--3---------3----|-----------------|-----------------|-------2---------|
-------0---------|-------3---------|-------3---------|-------2---------|
-----------------|--0--------------|--1--------------|--0--------------|
-----------------|-----------------|-----------------|-----------------|


  Q    Q    Q       Q    Q    Q       Q    Q    Q         Q    E  E  Q     
--2---------2----|-----------------|------------------||------------------|
-----------------|--2---------2----|------------------||--2-------4--2----|
-------2---------|-------3---------|--3----2----0----*||-------0----------|
--0--------------|-----------------|--0--------------*||------------------|
-----------------|--3--------------|------------------||--3---------------|
-----------------|-----------------|------------------||------------------|


  Q    Q    Q       Q    Q    Q         Q    Q    Q       Q    E  E  E  E   
-----------------|-----------------||------------------|-------------------|
--4---------4----|------------4----||------------------|--4-------------4--|
-------2---------|-------2---------||*-------0----3----|----------0--3-----|
--0--------------|--0--------------||*--0----0---------|-------0-----------|
-----------------|-----------------||------------------|-------------------|
-----------------|-----------------||---4--------------|--4----------------|


  Q    E  E  Q       Q    Q    Q       Q    Q    Q       Q    E  E  E  E   
------------------|-----------------|-----------------|-------------------|
--5-------4-------|--4---------4----|--3---------3----|--4----------------|
-------------6----|------------3----|-------2----2----|----------3--2--0--|
------------------|-------0---------|-------4---------|-------0-----------|
-------6----------|-----------------|-----------------|-------------------|
--4---------------|--4--------------|--3--------------|--4----------------|


  Q    Q    Q       E  E  Q    Q         Q    Q    Q       E  E  Q    Q     
-----------------|-------------------||-----------------|------------------|
-----------------|-------------------||-----------------|------------------|
------------2----|--3--2--0----L----*||------------2----|--3--2--0----L----|
--4----1---------|--------0----L----*||--4----1---------|--------0----L----|
-----------------|-------------------||-----------------|------------------|
--0--------------|--4----------------||--0--------------|--4---------------|


  Q    Q    Q       Q    Q     Q        Q     Q     Q        Q     Q     Q     
--3----0----6----|--9---------------|--12----------------|--15----16----18----|
-----------------|-------8----11----|--------11----14----|--------------------|
-----------------|------------------|--------------------|--------------------|
-----------------|------------------|--------------------|--------------------|
-----------------|------------------|--------------------|--------------------|
--0--------------|--L---------------|---L----------------|---L----------------|


  Q    Q    Q        H         Q        Q    E   E   Q        Q     H         
-------4----7----|--11--------------|--12----L--11--10----|--11----16--------|
--4--------------|--12--------------|--14----L------------|--------16--------|
------------0----|--12--------12----|---------------------|---0--------------|
-------0---------|------------------|---------------------|------------------|
-----------------|------------------|---------------------|------------------|
--4--------------|------------------|---------------------|------------------|


-----------||
-----------||
-----------||
-----------||
-----------||
-----------||




Duration Legend
---------------
W - whole
H - half
Q - quarter
E - 8th
S - 16th
T - 32nd
X - 64th
. - note dotted
|-n-|  - n-tuplets


Tablature Legend
----------------
L - tied note
x - dead note
g - grace note
(n) - ghost note
> - accentuded note
NH - natural harmonic
AH - artificial harmonic
TH - tapped harmonic
SH - semi harmonic
PH - pitch harmonic
h - hammer on
p - pull off
b - bend
br - bendRelease
pb - preBend
pbr - preBendRelease
brb - bendReleaseBend
\n/ - tremolo bar dip
\n - tremolo bar dive
-/n - tremolo bar Release up
/n\ - tremolo bar inverted dip
/n - tremolo bar return
-\n - tremolo bar Release down
S - shift slide
s - legato slide
/ -  slide into from below or out of upwards
\ -  slide into from above or out of downwards
~ - vibrato
W - wide vibrato
tr - trill
TP - tremolo picking
T - tapping
S - slap
P - pop
< - fade in
^ - brush up
v - brush down
Login or Register to remove this ad.