Ads

Kuusou Mesorogiwi (Mirai Nikki) Bass Tab

Submitted: Dec 11, 2012 by Niall Hamilton (Last updated: Aug 24, 2014)

5
Average: 5 (1 vote)
Download | Listen
Game: Mirai Nikki
Composer(s): Yousei Teikoku, Tatsuya Kato
Style: Transcription

This song is also called 空想メソロギヰ

AutoScroll: Slow | Medium | Fast
-------------------------------------------------------------------------------
			     Kuusou Mesorogiwi - Mirai Nikki OP
-------------------------------------------------------------------------------
Tabbed by: Niall Hamilton
E-mail: [email protected]
Tuning: Drop D

Cover here: Coming Soon!

Intro: 0.07
G|---------------------------------------------------------------------------|
D|---------------------------------------------------------------------------|
A|---------------------------------------------------------------------------|
D|-1-1-4-1/4-6-7-6-4----1-1-4-1/4-6-7-6---Repeat-----------------------------|

Verse: 0.16
G|---------------------------------------------------------------------------|
D|---------------------------------------------------------------------------|
A|---------1------------1----2-2-1-2---------2-2-1-2-------------------------|
D|-1-(x14)------1-(x14)--------------1-(x8)----------1-(x8)------------------|

G|---------------------------------------------------------------------------|
D|---------------------------------------------------------------------------|
A|---------------------------------------------------------------------------|
D|-1-1-4-1/4-6-7-6-4----1-1-4-1/4-6-7-6---Repeat-----------------------------|

Break: 0.42
G|---------------------------------------------------------------------------|
D|---------------------------------------------------------------------------|
A|---------------------------------------------------------------------------|
D|-4-----------6--------7-------7/9/7/6--------------------------------------|

Chorus: 0.51
G|---------------------------------------------------------------------------|
D|---------------------------------------------------------------------------|
A|-4-(x8)---0-(x8)-----------------------------------------------------------|
D|-------------------4-4-4-4-4-4-6-7-6----6-(x8)-----------------------------|

G|---------------------------------------------------------------------------|
D|---------------------------------------------------------------------------|
A|-4-(x8)---0-(x8)-----------------------------------3-----4-(x16)-0(x8)-----|
D|-------------------4-4-4-4-4-4-6-7-6----6-6-6-6-6----4-6---------------6(x8|

Ending Riff: 1.17
G|---------------------------------------------------------------------------|
D|---------------------------------------------------------------------------|
A|-4-4-4-4-4-4-4-5-4—(x4)----------------------------------------------------|
D|---------------------------------------------------------------------------|
Login or Register to remove this ad.

1 comment on Kuusou Mesorogiwi

Awesome tab bro

lol with this the song is complete , good job bro