Here With You (Mirai Nikki) Ukulele Tab

Submitted: May 01, 2015 by CandyCane52

3
Average: 3 (2 votes)
Download | Listen
Game: Mirai Nikki
Composer(s): Yousei Teikoku, Tatsuya Kato
Style: Transcription

AutoScroll: Slow | Medium | Fast
Here With You
Mirai Nikki (Anime)
Tatsuya Katsu
CandyCane52
15/04/2015
 :00				       :08			   :14
G-------------------------------------------------------------------2-----2-----2-
C-----------------------------1--------------------2---------4-4----2-----2-----1-
E-2---------------0---------4-0----4-2----------------0------5-4----0-----0-----0-
A-0-12-11-0-9--0----0-2p0-----0---------12-11-0-9--0----2-2---------0--0--2--4----
 :20				  :28
G---------------------------------2-----2-----2---------------------------------------
C-------------------------4--4----2-----2-----1----------------------------------4--4-
E-4------5--5--5--2-------5--4----0-----0-----0-0---4------5--5--5---------------5--4-
A----0-7-7--5--4--0--4p2----------0--0--2--4--0--7----0-7--7--5--4--4h5p4p0h4p2-------
 :42					       :57
G-------------------------------------------------------------------------------------
C-2--4--6--2--------2---4-------------1---4-4--2--4--6--------------------------------
E-2--4--5--0---0----2---4--2--5---------2-4-5--2--4--5--5---5----55--5-5--5-5---------
A------------0---0---------0--2--7-4--------------------2---4--2-44--5-5--9-9--11p9-8-
  1:09						    1:23
G-2-----2-----2-------------------------------------------------------------
C-1-----2-----1-----------------------------4--4----1-----------------------
E-0-----0-----0-0---4------5--5--5--2----4--5--4----0--2--4--4--5--5p0--0-0-
A-0--0--2-4---0--7-----0-7-7--5--4--0--4-2-------------0--2--4--4-------0-0-
 1:29					       1:37		       	    1:43
G--------------------------------------------------------------------------------------------------------
C--------------------------------------4--4-----------------2----------1--------------------2------4-----
E-2h4h5-----------5--------------------5--4----2---------------0-----4-0----4-2-------------0--0---5-4h5-
A-------2h4h5--7--5-4-5-4--4h5p4p0h4p2---------0-12-11-0-9--0----2p0---0--------12-11-0-9---0----2-------
 1:50			      		    1:58			 2:04
G-------------------------------------------------------------------------2-----2---------2-----------
C--------------------2----------------------------------2--------------4--2-2---2---------2-----------
E-0-4-2--------------2---0------4p0--0-4-2--------------0----0---------4--0-----0---------0-----------
A-0------12-11-0--9--0-0----2p0------0------12-11-0--9--0--0---2-2p0------0---0-0--0-7-5--0--0--5--12-
Login or Register to remove this ad.