Ads

Blood Teller ~Piano~ (Mirai Nikki) Guitar Tab

Submitted: Sep 18, 2015 by MechaKrauser

5
Average: 5 (4 votes)
Download | Listen
Game: Mirai Nikki
Composer(s): Yousei Teikoku, Tatsuya Kato
Style: Arrangement, Fingerstyle

AutoScroll: Slow | Medium | Fast
Blood Teller ~piano~        
from Mirai Nikki (Future Diary)
music by Tatsuya Kato
tab by MechaKrauser

Standard tuning, Capo on 5
2/4 time, 85bpm
                                                             
                     ^                             ^     ^                      
     Q    E  S  S    Q    E  S S    E  E  E  E     E  E  E  S S    E  E  E  E   
E||---------------|--------------|--------------|---------------|--------------|
B||----------0h-1-|--1----L----3-|--L--1--0--1--|--0-----0------|--------------|
G||---------------|--2----L--2---|--------------|--2-----0--2-0-|--L-----------|
D||---------------|--------------|--------------|--3-----3------|--------0--3--|
A||---------------|--0----L------|--------------|-----3---------|-----3--------|
E||---------------|--------------|--------------|--1------------|--------------|


  ^                             ^              ^               ^     ^       
  E  E  E  E     E  E  E  E     E  E  E  E     Q    E  S  S    E  E  E  S S  
--------------|--------------|--------------|---------------|---------------|
--------------|-----1-----3--|--3--------0--|----------0h-1-|--1----------3-|
--0--------0--|--L-----------|--0-----0-----|--0------------|--2-----2--2---|
--2-----2-----|--------2-----|-----0--------|--0------------|-----2--2------|
--3--3--------|--------------|--------------|--3----2-------|--0------------|
--------------|--------------|--3-----------|---------------|---------------|


                 ^     ^                        ^        ^                  
  E  E  E  E     E  E  E  S S    E  E  E  E     E  E  E  E     E  E  E  E   
--------------|---------------|--------------|--------------|--------------|
--L--1--0--1--|--0-----0------|--------------|--------------|-----------0--|
--------------|--2-----0--2-0-|--L-----------|--0--------0--|--------0-----|
--------------|--3-----3------|--------0--3--|--2-----2--0--|-----0--------|
--------------|-----3---------|-----3--------|--3--3-----2--|--2-----------|
--------------|--1------------|--------------|--------------|--------------|


  ^                             ^                       ^                            
  E  E  E  E     E  E  E  E     H           H           E  E  E  S S    E  E  E  E   
--------------|--------------|--1--------|--L--------|---------------|--------------|
--------------|-----------1--|--1--------|--L--------|---------------|-----1--1-----|
--2--------2--|--L-----2-----|--2--------|--L--------|-----0--0--0-0-|--L--------0--|
--3-----3-----|-----3--------|--3--------|--L--------|--2------------|--------------|
-----3--------|--------------|-----------|-----------|--0------------|--------------|
--1-----------|--------------|-----------|-----------|---------------|--------------|


  ^                              ^                              ^              ^         
  E  E  E  S S    E  E  E  E     E  E  E  S S    E  E  E  E     E  E  E  E     H         
---------------|--------------|--0----------1-|--L--0--------|--------------|-----------|
---------------|-----1--1--3--|---------------|--------3--1--|--3-----1-----|--0--------|
-----0--0--0-0-|--L-----------|--------0------|--------------|--0-----0-----|-----------|
---------------|--------------|-----2---------|--------------|-----0-----0--|--0--------|
--3------------|--------------|--3--------3---|--------------|--------------|-----------|
--1------------|--------------|---------------|--------------|--3-----------|--3--------|


  ^                              ^                              ^            
  E  E  E  S S    E  E  E  E     E  E  E  S S    E  E  E  E     E  E  E  E   
---------------|--------------|---------------|--------------|--0-----------|
---------------|-----1--1-----|---------------|-----1--1--3--|--3-----------|
-----0--0--0-0-|--L--------0--|-----0--0--0-0-|--L-----------|--2-----2-----|
--2------------|--------------|---------------|--------------|--0--0-----0--|
--0------------|--------------|--3------------|--------------|--------------|
---------------|--------------|--1------------|--------------|--------------|


  ^              ^                    ^       ^                              
  E  E  E  E     E  S S E  E     Q    Q       E  S S E  E     E  E  E  S  S  
--------------|---------------|------------|--0------------|----------------|
--3--1--0-----|--0--1-1-------|------------|-------3----1--|--3--------1h-3-|
--0--------0--|--2------------|-------0----|---------------|--2-------------|
--------------|--2------------|--2---------|------------3--|-----3----------|
--2-----------|--0------2--0--|-------2----|-----0---3-----|--------3--0----|
--------------|---------------|------------|--1------------|----------------|


  ^                               ^                              ^     ^       
  E  S S E  E     E  S S E  E     E  S S E  E     E  E  E  E     E  E  E  S S  
--0---------3--|--0------------|---------------|--------------|-----------0-0-|
-------3-------|-------3-L--1--|--3----1-------|--1--------1--|--3-----3------|
------------0--|---------------|------------0--|--2--0--------|--2-----2------|
---------0-----|-----0---------|---------2-----|--------2-----|-----------0---|
-----2---------|---------------|--0--3---------|-----------3--|-----0--3------|
--3------------|---------------|---------------|--------------|--1------------|


               ^         ^                     ^         ^                   
  Q    Q       E  S S E  E     E  S S E  E     E  S S E  E     E  S S E  E   
--L---------|---------------|---------------|---------------|---------------|
-------1----|-------1----1--|--1---------1--|-------3----3--|--3---------3--|
-------2----|------------2--|---------------|--0---------0--|-------0-L-----|
------------|--3------3-----|-------3-L-----|---------0-----|-----0---------|
------------|-----3---------|-----3---------|-----2---------|---------------|
------------|--1------------|---------------|--3------------|---------------|


  ^        ^                     ^                    ^       ^             
  E  E  E  S S    E  E  E  E     E  E  E  E     E  E  Q       E  E  E  S S  
--0--------0-0-|--L-----0--1--|--0-----------|-------------|---------------|
---------------|-----3--------|--------3-----|--1-----3----|-----0--0--1-3-|
-----------2---|-----2--------|--------------|--------2----|--2------------|
--------2------|--------------|-----------3--|-------------|--2------------|
--0--3---------|--------------|-----3--------|-----3-------|---------------|
---------------|--------------|--1-----------|-------------|--0------------|


                                                 ^        ^                   
  E  E  E  S S    E  E  E  E     Q    E  S  S    E  E  E  S S    E  E  E  E   
-----------1-0-|--------------|---------------|-------------0-|--L-----------|
-----1--3------|--------------|----------2h-3-|--3--------3---|-----3--2--3--|
---------------|-----2--2--2--|--1----L-------|--4-----4--4---|-----4--4--4--|
--2------------|--------------|--2----L--2--L-|-----4-----4---|--------------|
---------------|--------------|---------------|--2------------|--------------|
---------------|--0-----------|--0----L-------|---------------|--------------|


  ^                        ^      ^        ^                                    
  E  E  E  S S    E  E  E  S S    E  E  E  S  S    E  E  E  E     E  E  E  S S  
---------------|-------------0-|--2--------2h-3-|--L--2--0-----|--0-----0----2-|
--2--0--2--0---|-----------3---|--3-----3--3----|-----3--3--3--|-----------3---|
--0-----0--0-2-|--L-----0--0---|--2--2-----2----|--------------|--2-----2----2-|
-----0-----0---|-----0-----0---|--0-------------|--------------|-----2---------|
---------------|---------------|----------------|--------------|--0------------|
--3------------|---------------|----------------|--------------|---------------|


                            ^                     ^                     ^       
  E  E  S S S S    E  E  E  S S    E  E  E  E     E  E  E  S S    E  E  E  S S  
--L-------0-----|-------------0-|--L-----------|---------------|--------2--L---|
------------3-2-|--3--------3---|-----3--2--3--|--2--0--2--0---|--------0--L---|
--L-------2-----|--4-----4--4---|-----4--4--4--|--0-----0--0-2-|--L----------2-|
-----2--L-------|-----4-----4---|--------------|-----0-----0---|-----0---------|
----------------|--2------------|--------------|---------------|---------------|
----------------|---------------|--------------|--3------------|---------------|


        ^                       ^               ^                ^            
  E  E  E  E     E  E  E  E     E  S S E  E     E  S S S S E     E  E  E  E   
--------2-----|--------------|---------------|--2--2----------|-----0-----0--|
--0-----0-----|--0--------0--|--3--2-3-L--5--|--3----5-3-2----|--0-----------|
--0-----0-----|--0-----------|--4------------|-------------2--|--0-----------|
-----0-----0--|-----0--L-----|--4--4------4--|--4----------4--|--0-----------|
--2-----------|--2-----------|---------------|----------------|--2-----------|
--------------|--------------|--2------------|--2-------------|--3-----3-----|


  ^              ^              ^              ^              ^              ^        ^   
  E  E  E  E     E  E  E  E     E  S S Q       E  E  E  E     E  E  E  E     E  E  E  E   
--------------|--------------|--------------|--------------|--0-----------|--------------|
--4-----------|--4-----------|-----0-2-L----|-----0--2--3--|--3--3--2-----|--0--------0--|
--4--4-----4--|--4-----4-----|--3-----------|--------------|--2--------2--|--1--------1--|
--4-----------|--4--4-----4--|--4-----------|--2-----------|--0-----0-----|--2--------2--|
--6-----6-----|--2-----2-----|--4-----------|--0-----0-----|--------------|--2-----2-----|
--------------|--------------|--2-----------|--------------|--------------|--0--0--------|


                 ^              ^              ^              ^              ^            
  E  E  E  E     E  E  E  E     E  E  E  E     E  E  E  E     E  S S Q       E  E  E  E   
-----0--------|-----0-----0--|--------------|--------------|--------------|--------------|
--------2-----|--0-----------|--4-----------|--4-----------|-----0-2-L----|-----0--2--3--|
--L--------2--|--0-----------|--4--4-----4--|--4-----4-----|--3-----------|--------------|
--L-----------|--0-----------|--4-----------|--4--4-----4--|--4-----------|--2-----------|
--------------|--2-----------|--6-----6-----|--2-----2-----|--4-----------|--0-----0-----|
--------------|--3-----3-----|--------------|--------------|--2-----------|--------------|


              *Slow tempo ----------------> 50bpm
  ^     ^       ^        ^                    ^                      
  E  E  Q       E  E  E  E     E  E  E  E     H           H          
--0-----0----|--------------|--------------|-----------|-----------||
--3--3--3----|--2--------2--|--L--------2--|--2--------|--L--------||
--2----------|--1-----1--1--|--L-----1-----|--1--------|--L--------||
--0-----0----|--4--4--------|-----4--------|-----------|-----------||
-------------|--4-----------|--------------|--4--------|--L--------||
-------------|--------------|--------------|-----------|-----------||




Duration Legend
---------------
W - whole
H - half
Q - quarter
E - 8th
S - 16th
T - 32nd
X - 64th
. - note dotted
|-n-|  - n-tuplets


Tablature Legend
----------------
L - tied note
x - dead note
g - grace note
(n) - ghost note
> - accentuded note
NH - natural harmonic
AH - artificial harmonic
TH - tapped harmonic
SH - semi harmonic
PH - pitch harmonic
h - hammer on
p - pull off
b - bend
br - bendRelease
pb - preBend
pbr - preBendRelease
brb - bendReleaseBend
\n/ - tremolo bar dip
\n - tremolo bar dive
-/n - tremolo bar Release up
/n\ - tremolo bar inverted dip
/n - tremolo bar return
-\n - tremolo bar Release down
S - shift slide
s - legato slide
/ -  slide into from below or out of upwards
\ -  slide into from above or out of downwards
~ - vibrato
W - wide vibrato
tr - trill
TP - tremolo picking
T - tapping
S - slap
P - pop
< - fade in
^ - brush up
v - brush down
Login or Register to remove this ad.