Ads

Anshin Kuuki (Mirai Nikki) Guitar Tab

Submitted: Apr 21, 2013 by Bloodypizza

5
Average: 5 (1 vote)
Download | Listen
Game: Mirai Nikki
Composer(s): Yousei Teikoku, Tatsuya Kato
Style: Transcription

AutoScroll: Slow | Medium | Fast
Mirai Nikki OST II Track 03
Tuning: E-Standart

^ = Hammer on/pull off
/ = slide

Rhythm Guitar:
E|-2-2-2--0-0-0--3-3-3--0-0-0-|
H|-3-3-3--2-2-2--0-0-0--2-2-2-|
G|-2-2-2--2-2-2--0-0-0--2-2-2-|
D|-0-0-0--2-2-2--0-0-0--2-2-2-|
A|--------0-0-0--2-2-2--0-0-0-|
E|---------------3-3-3--------|

Lead Guitar:
E|--------------------------------------------------------------------------------------------------------------|
H|--------------------------------------------------------------------------------------------------------------|
G|----11-9---7-6----------11-9---12-11^12^11-9-7-6---7-----11-9--7-6----------11-9-----12-11^12^11-9-7-6---6-7--|
D|-7-------------9-7---7---------------------------7-----7-----------9-7---7---------7-------------------7------|
A|--------------------------------------------------------------------------------------------------------------|
E|--------------------------------------------------------------------------------------------------------------|

E|---------------------------------------------------------------------------|
H|---------------------------------------------------------------------------|
G|-11-11--9--14---------------------11-11--9--14--------------------------12-|
D|(9)(9)---------12-14----12^14----(9)(9)--------12~--11~--------11-12-14----|
A|---------------------12----------------------------------12-14-------------|
E|---------------------------------------------------------------------------|

E|---------------------------------------------------------------------------|
H|---------------------------------------------------------------------------|
G|-11-11--9--14---------------------11-11--9--14--------------------------12-|
D|(9)(9)---------12-14----12^14----(9)(9)--------12~--14~--------11-12-14----|
A|---------------------12----------------------------------12-14-------------|
E|---------------------------------------------------------------------------|

E|----------------------------------------------------------------------------|
H|-------------------------------------------------------15-14-10/12----------|
G|-11-12-14-----------11-12-11--------------11-12-14-----------------14-11-14-|
D|----------12--12-14----------14-12--12-14----------12-----------------------|
A|----------------------------------------------------------------------------|
E|----------------------------------------------------------------------------|

E|--------------------------------------------------------------------------------------------------------------------|
H|--------------------------------------------------------------------------------------15-14-12----------------------|
G|----------------12--11-12-14------------------12-11-12-14--12-11--12-11^12^11-9----------------14-12-11-------------|
D|-------11-12-14--------------12--12-11-12-14------------------------------------12-11-------------------14-12-------|
A|-12-14--------------------------------------------------------------------------------------------------------14-12-|
E|--------------------------------------------------------------------------------------------------------------------|

E|--------------------------------------------------------------------------------------------------------------|
H|--------------------------------------------------------------------------------------------------------------|
G|----11-9---7-6----------11-9---12-11^12^11-9-7-6---7-----11-9--7-6----------11-9-----12-11^12^11-9-7-6---6-7--|
D|-7-------------9-7---7---------------------------7-----7-----------9-7---7---------7-------------------7------|
A|--------------------------------------------------------------------------------------------------------------|
E|--------------------------------------------------------------------------------------------------------------|

E|--------------------------------------------------------------------------------------|
H|-----------------------------------------------------------------15-14-12-10----------|
G|-11-11--11-12-14------------------------12---11-11--11-12-14------------------12------|
D|(9)(9)------------12-14--------11-12-14-----(9)(9)-----------12-----------------------|
A|-------------------------12-14--------------------------------------------------------|
E|--------------------------------------------------------------------------------------|

E|--------------------------------------------------------------------------------------|
H|-----------------------------------------------------------------15-14-12-10----------|
G|-11-11--11-12-14------------------------12---11-11--11-12-14-----------------12-11----|
D|(9)(9)------------12-14--------11-12-14-----(9)(9)-----------12-----------------------|
A|-------------------------12-14--------------------------------------------------------|
E|--------------------------------------------------------------------------------------|


Login or Register to remove this ad.