Ads

Wet Hands (Minecraft) Guitar Tab

Submitted: Feb 22, 2020 by guitarsvd (Last updated: Feb 25, 2020)

2.5
Average: 2.5 (2 votes)
Download | No audio :(
Game: Minecraft
Composer(s): Daniel Rosenfeld
Style: Arrangement, Artificial harmonics, Fingerstyle, Natural harmonics

Click here for a video example.

AutoScroll: Slow | Medium | Fast
Title: Wet Hands
SubTitle: Minecraft
Artist: Cecil Chau (GuitarSVD)
Music: C418
Tempo = 70
Track 1

Legend
L - tied note
x - dead note
h - hammer on/pull off
b - bend
s - slide
~ - vibrato
g - ghost note
> - accentuated note
t - trill
M - palm mute
. - staccato
P - popping (bass)
S - slapping (bass)
+ - tapping
W - wide vibrato
< - fade in
w - whammy bar
= - tremolo picking
v - brush up
^ - brush down
V - pick stroke up
n - pick stroke down

                                                             
E |----------------------------|-----------0----------------|
B |-----------0h-2--0----------|----------------------------|
G |--------2-----------2-------|--------6-----6-------------|
D |-----2-----------------2----|-----4-----------7----------|
A |--0-------------------------|--5-------------------------|
E |----------------------------|----------------------------|

                                                          
----------------------------|-----------0----------------|
-----------0h-2--0----------|----------------------------|
--------2-----------2-------|--------6-----6-------------|
-----2-----------------2----|-----4-----------7----------|
--0-------------------------|--5-------------------------|
----------------------------|----------------------------|

                                         
--4--------5----------------------------|
-----------------------0h-2--0----------|
--------------------2-----------2-------|
-----------------2-----------------2----|
--------------0-------------------------|
----------------------------------------|

                                                     
--------------------0--------------0----------------|
--7--------------------7----------------------------|
--------------------------------6-----6-------------|
-----------------------------4-----------7L-7-------|
--------------------------5-------------------------|
----------------------------------------------------|

                                                     
--4-----------------7--9L---------------------------|
-----------------------------------0h-2--0L-0-------|
--------------------------------2-------------------|
-----------------------------2----------------------|
--------------------------0-------------------------|
----------------------------------------------------|

                                                     
--9--------------------0-----------0----------------|
-----7----------------------------------------------|
--------------------6-----------6-----6-------------|
-----------------------------4-----------7----------|
--------------------------5-------------------------|
----------------------------------------------------|

  ^
--3-------------------------------------------------|
-----------19----------12L--------------------------|
--------------19------------------------------------|
-----------------19-------------0--4----------------|
-----------------------------2----------------------|
--------------------------3-------------------------|


-------------------------------|
--12---------------------------|
-----------------2-------------|
-----------0--4----------------|
--------2----------------------|
-----3-------------------------|


--3-------------------------------------------------|
--------19-------------12L--------------------------|
--------------19------------------------------------|
--------------------19----------0--4----------------|
-----------------------------2----------------------|
--------------------------3-------------------------|


----------------------------------------|--0----------------------------|
--12------------------------------------|--------------0--2--0----------|
-----------2--------------2-------------|-----------2-----------2-------|
--------------------0--4----------------|--------------------------2----|
-----------------2----------------------|--------4----------------------|
--------------3-------------------------|-----5-------------------------|


-----------------0-----9----|
-----------0--2-----10------|
--------2-------------------|
----------------------------|
-----4----------------------|
--5-------------------------|


--10-------9--------0--2L---------------------------|
--0-----------10------------------------------------|
----------------------------------------------------|
--0--------------------------0-----7L-7-------------|
--------------------------------9-------------------|
--------------------------7-------------------------|


--2-------------------------------------------------|
-----3L-------3-----0--2--------------2-------------|
-----------------------------------2----------------|
-----------------------------0--4-------------------|
--------------------------2-------------------------|
----------------------------------------------------|


-----------------2----------------------------------|
--3-----2--3----------------------------------------|
-----------------------------------0--2-------------|
--------------------------------0-------------------|
-----------------------------2----------------------|
--------------------------3-------------------------|


-------------------------------|-------------------------------|
--2-----------------0----------|--0----------------------------|
-----------------------2--2----|-----------------1-------------|
--------------------------2----|--------------2-----2----------|
--------------------------0----|-----------2-----------2-------|
-------------------------------|-----0--4-----------------4----|


----------------------------|
----------------------------|
--------------1-------------|
-----------2-----2----------|
--------2-----------0-------|
--0--4----------------------|


--3--2--0-----0-----0--2L---------------------------|
-----------3-----3----------------------------------|
--------------------------------------2-------------|
--------------------------------0--4-----4--0-------|
-----------------------------2-----------------2----|
--------------------------3-------------------------|


--2--0--------5-------------------------------------|
--------------------------------------2-------------|
-----------------------------------2-----2----------|
--------------------------------2-----------2-------|
--------------------------0--4-----------------4----|
----------------------------------------------------|


--4--0----------------------------------------------|
--------0-------------------------------------------|
-----------1----------------------------------------|
--------------2-----------------2--2L-2-------------|
-----------------------------2----------------------|
--------------------------0-------------------------|


-------------------------------|----------------------------|
--0----------------------------|----------------------------|
-----1-------------------------|----------------------------|
--------2----------------------|-----------2----------------|
-----------2L-2----------------|--------2-----2-------------|
--------------------------0----|--0h-4----------------------|


-----------5----------------------------|--0----------------------------|
----------------------------------------|--------------0h-2--0----------|
----------------------------------------|-----------2-----------2-------|
-----------------------2--2-------------|--------2-----------------2----|
--------------------2-------------------|-----0-------------------------|
--------------0h-4----------------------|-------------------------------|


-------||
-------||
-------||
-------||
--0----||
-------||

Login or Register to remove this ad.

1 comment on Wet Hands

Decent

3

Tab is pretty good but there are a few points where the backing should be played at the same time as some notes so the timing is slightly off