Ads

Minecraft (Minecraft) Guitar Tab

Submitted: Jan 14, 2015 by Piefanatic

5
Average: 5 (8 votes)
Download | Listen
Game: Minecraft
Composer(s): Daniel Rosenfeld
Style: Arrangement, Fingerstyle

This song is also called calm1

AutoScroll: Slow | Medium | Fast
Song: Minecraft
Artist/Composer: Daniel Rosenfield (C418)
Game: Minecraft
Tabbed by Piefanatic on 7 January 2015

This is my first tab so it might be slightly off on timing,
but the tones should be correct.

->Standard Tuning
---> CAPO 6 
--->Tempo: 120 BPM

e|| 0---------------|----------------|0---------------|----------------||  
B||*1-------3-------|----1-----------|1-------3-------|--------------*-||  
G|| ------------2---|(2)-------------|------------2---|(2)-0-----------||  
D|| ----------------|----2-----------|----------------|----------------||  
A||*------------3---|(3)-------------|------------3---|(3)-----------*-||  
E|| 3---------------|----------------|3---------------|----------------||  

Repeat 3x; build volume gradually

e|0---------------|----------------|0---------------|----------------|
B|1-------3-------|----1-----------|1-------3-------|1---------------|
G|--------0---2---|(2)-------------|------------2---|----0-----------|
D|----------------|----2-----------|----------------|------------2---|
A|------------3---|(3)-------------|------------3---|(3)-------------|
E|3---------------|----------------|3---------------|----------------|

e|0---------------|----------------|0-----------0---|(0)-3-----------|
B|1---------------|----1---3-------|1-------3-------|----------------|
G|--------0---2---|(2)-------------|------------2---|(2)-0-----------|
D|----------------|----2-----------|----------------|-2--------------|
A|------------3---|(3)-------------|------------3---|(3)-------------|
E|3---------------|----------------|3---------------|----------------|

e|0-------3---5---|(5)-3---0-------|0-----------0---|(0)-------------|
B|1-------3-------|----1-------3---|1-------3-------|----1-----------|
G|------------2---|(2)-------------|------------2---|(2)-0-----------|
D|----------------|----2-----------|----------------|----------------|
A|------------3---|(3)-------------|------------3---|(3)-------------|
E|3---------------|----------------|3---------------|----------------|

e|----------------|----------------|--------0-------|----------------|
B|----------------|----1-----------|3-----------1---|(1)-------------|
G|0-----------2---|(2)-------------|----------------|----0-----------|
D|----------------|----2-----------|----------------|----------------|
A|------------3---|(3)-------------|------------3---|(3)-------------|
E|3---------------|----------------|3---------------|----------------|

e|| 0---------------|----------------|0---------------|----------------||
B||*1-------3-------|----1-----------|1-------3-------|--------------*-||
G|| 2-----------2---|(2)-------------|0-----------2---|(2)-0-----------||
D|| ----------------|----2-----------|----------------|----------------||
A||*------------3---|(3)-------------|------------3---|(3)-----------*-||
E|| 3---------------|----------------|3---------------|----------------||

Repeat as Desired
 
e|| 0---------------|----------------|0---------------|----------------||
B||*1-------3-------|----1-----------|1-------3-------|--------------*-||
G|| ------------2---|(2)-------------|------------2---|(2)-0-----------||
D|| ----------------|----2-----------|----------------|----------------||
A||*------------3---|(3)-------------|------------3---|(3)-----------*-||
E|| 3---------------|----------------|3---------------|----------------||

Repeat and Fade

(#)-Note holds through measure
Login or Register to remove this ad.

1 comment on Minecraft

Very good!

5

Nice arrangement, it sounds very much like it.