Ads

Danny (Minecraft) Guitar Tab

Submitted: Mar 05, 2013 by mao_west

4.75
Average: 4.8 (8 votes)
Download | Listen
Game: Minecraft
Composer(s): Daniel Rosenfeld
Style: Arrangement, Fingerstyle

This song is also called Hal4

AutoScroll: Slow | Medium | Fast
                               
Hi ^^ this is the first song i've ever tabbed, hope you like it, if you have any suggestion just tell to me.

NOTE: You should play longer the bass notes, im not enough skilled whit guitar pro for wrote that XDDDDDD.

You can contact me by this e-mail: [email protected]



				
Information:

Name of song---> Danny hal4
Name of game---> Minecraft
Composer of song---> Daniel Rosenfeld (C418)
Name of tabber---> Mao West
Date tab was made---> 4/3/2013


guitar 1 (Capo 3)



     Q    Q    Q    Q       Q    Q    Q    Q       Q    Q    Q    Q     
E||----------------------|----------------------|----------------------|
B||------------0----1----|------------0----3----|--1----0----1----3----|
G||--0----2----0---------|--0----2----0---------|----------------------|
D||--0---------0---------|------------0---------|--0---------3---------|
A||----------------------|--2-------------------|------------3---------|
E||--3-------------------|--3-------------------|--1-------------------|


  W                   Q    Q    Q    Q       Q    Q    Q    Q     
-------------------|----------------------|----------------------|
-------------------|------------0---------|----------------------|
--0----------------|--0----2---------0----|------------0---------|
--2----------------|------------2---------|--2----0----0----2----|
--3----------------|--3---------2---------|--3-------------------|
-------------------|----------------------|--1---------0---------|


  Q    E  E  Q    Q       H        H           Q    Q    Q    E  E   
-----------------------|--------------------|-----------------------|
-----------------------|--------------------|--0--------------1--3--|
-----------------------|-----------0--------|------------0----------|
--0----2--0-------0----|--2--------2--------|--0--------------------|
-------------3---------|--0-----------------|-------0----2----3-----|
--1--------------------|--------------------|--3--------------------|


  E  E  E  E  E  E  E  E     E  S S E.  S Q    E  E     W                 
--------------------------|--------------------------|-------------------|
--L--------------------0--|-----1-0-----3-0-------0--|--0----------------|
-----0-----------0--2-----|--------------------2-----|--0----------------|
--0-----2--0--------0-----|--0------------3----0-----|--2----------------|
--------0-----2-----------|--3------2-----3----------|--3----------------|
--------------------------|--------------------------|-------------------|


  Q    Q    Q    E  E     E  E  Q    E  E  E  E   
-----------------5--3--|--L----------------------|
--0--------------------|-----3----------------0--|
--0---------0----------|--------0----------2-----|
-------2----0----------|----------------0--0-----|
-------0----2----3-----|--------0----2-----------|
--3--------------------|--3----------------------|


  E  S S S S S S S S S S E  E     W                    Q    Q    Q    Q     
-------------------0-3---------|-------------------|--10----8----7----3----|
--L--1-0-3-0-0-3-0-----0----0--|--0----------------|-----------------------|
-------------------------2-----|--0----------------|-----------------------|
-------------------------0-----|--2----------------|-----------------------|
--3------2-------3-------------|--3----------------|-----------------------|
-------------------------------|-------------------|---3-------------------|


  Q    Q    Q    Q       Q    E  E  Q    Q       W                H          
--1----0--------------|------------------3----|----------------------------||
------------3----1----|-------0--1--3----1----|--3----------------L--------||
------------0----0----|--0----------2----0----|--0----------------L--------||
-------2--------------|--0--------------------|--0----------------L--------||
----------------------|-----------------------|--2-------------------------||
--1---------3---------|-------------3---------|--3-------------------------||




Duration Legend
---------------
W - whole
H - half
Q - quarter
E - 8th
S - 16th
T - 32nd
X - 64th
. - note dotted
|-n-|  - n-tuplets


Tablature Legend
----------------
L - tied note
x - dead note
g - grace note
(n) - ghost note
> - accentuded note
NH - natural harmonic
AH - artificial harmonic
TH - tapped harmonic
SH - semi harmonic
PH - pitch harmonic
h - hammer on
p - pull off
b - bend
br - bendRelease
pb - preBend
pbr - preBendRelease
brb - bendReleaseBend
\n/ - tremolo bar dip
\n - tremolo bar dive
-/n - tremolo bar Release up
/n\ - tremolo bar inverted dip
/n - tremolo bar return
-\n - tremolo bar Release down
S - shift slide
s - legato slide
/ -  slide into from below or out of upwards
\ -  slide into from above or out of downwards
~ - vibrato
W - wide vibrato
tr - trill
TP - tremolo picking
T - tapping
S - slap
P - pop
< - fade in
^ - brush up
v - brush down
Login or Register to remove this ad.

11 comments on Danny

I love you.

5

I love you.

are u gay?

are u gay?

lol'd

lol'd

That is why this site is

That is why this site is called Gaymetabs.

Wow auri, Gay-mtabs made me

Wow auri, Gay-mtabs made me laugh, like....literally out loud! Helps that I've had a few drinks though, but still...

You should've read the site

You should've read the site name before you posted.

Disc

Is this a song that is on a disc?

Mmmm i dont think so, but i'm

Mmmm i dont think so, but i'm sure that you can ear this song while playing

The music is the best thing

5

The music is the best thing about Minecraft.

record

hi guys I recorded the song, you can listen it here: http://www.youtube.com/watch?v=1SV7nHtISzI

Going by this vid,

Going by this vid, https://www.youtube.com/watch?v=SznnVAnkv3c&ab_channel=InfernalEntertain

the capo isn't needed. the notes match with no capo