Area 6-7 (Mighty Morphin Power Rangers) Bass/Guitar Tab

Submitted: Feb 04, 2011 by Jacob31593 (Last updated: Feb 04, 2011)

0
Download | Listen
Game: Mighty Morphin Power Rangers
Composer(s): Kinuyo Yamashita, Iku Mizutani
Style: 2 or more instruments, Alternate picking, Arrangement, Transcription
Series: Power Rangers

This song is also called Mutitus & Cyclopsis

AutoScroll: Slow | Medium | Fast

Area 6-7 from Mighty Morphin Power Rangers
Composed by Iku Mizutani and Kinuyo Yamashita
Tabbed by Jacob31593
February 4th 2011

wooo
190 BPM

Lead

                                      |---3--|   |---3--|   |---3--|   |---3--|   
                                      E  E   E   E  E   E   E  E   E   E  E   E   
E||-------|-------|-------|-------|----------------------------------------------|
B||-------|-------|-------|-------|----------------------------------------------|
G||-------|-------|-------|-------|--12--9------12--9------12--9------12--9------|
D||-------|-------|-------|-------|---------10---------10---------10---------10--|
A||-------|-------|-------|-------|----------------------------------------------|
E||-------|-------|-------|-------|----------------------------------------------|


   |---3---|   |---3---|   |---3---|   |---3---|                                              
   E   E   E   E   E   E   E   E   E   E   E   E      W                    H.           Q     
--------------------------------------------------|---------------------|--------------------|
--------------------------------------------------|--12~----------------|--L-----------------|
--14--11------14--11------14--11------14--11------|---------------------|--------------------|
----------12----------12----------12----------12--|---------------------|--------------------|
--------------------------------------------------|---------------------|--------------------|
--------------------------------------------------|---------------------|--------------------|


    Q     Q.      Q.         Q.      Q.      Q       Q     Q.      Q.         Q.      Q.      Q     
|----------------19------|--17--------------15----|---------------19------|--17------15------------|
|--------17--------------|----------19------------|-------17--------------|------------------19----|
|*-----------------------|------------------------|-----------------------|------------------------|
|*-----------------------|------------------------|-----------------------|------------------------|
|------------------------|------------------------|-----------------------|------------------------|
|------------------------|------------------------|-----------------------|------------------------|


  Q     Q.      Q.         Q.      Q.      Q       Q     Q.      Q.         Q.      Q.      Q             
---------------19------|--17--------------15----|---------------19------|--17------15------------|-------|
-------17--------------|----------19------------|-------17--------------|------------------19----|-------|
-----------------------|------------------------|-----------------------|------------------------|-------|
-----------------------|------------------------|-----------------------|------------------------|-------|
-----------------------|------------------------|-----------------------|------------------------|-------|
-----------------------|------------------------|-----------------------|------------------------|-------|


                                                                        5x
-------|-------|-------|-------|-------|-------|-------|-------|--------||
-------|-------|-------|-------|-------|-------|-------|-------|--------||
-------|-------|-------|-------|-------|-------|-------|-------|-------*||
-------|-------|-------|-------|-------|-------|-------|-------|-------*||
-------|-------|-------|-------|-------|-------|-------|-------|--------||
-------|-------|-------|-------|-------|-------|-------|-------|--------||




Duration Legend
---------------
W - whole
H - half
Q - quarter
E - 8th
. - note dotted
|-n-|  - n-tuplets


Tablature Legend
----------------
L - tied note
/ -  slide into from below or out of upwards
~ - vibrato


Right Harmony

                                                                         Q     Q     E   Q     E   
E||-------|-------|-------|-------|-------|-------|-------|-------||---/12----12--------12----15--|
B||-------|-------|-------|-------|-------|-------|-------|-------||----------------15------------|
G||-------|-------|-------|-------|-------|-------|-------|-------||*-----------------------------|
D||-------|-------|-------|-------|-------|-------|-------|-------||*-----------------------------|
A||-------|-------|-------|-------|-------|-------|-------|-------||------------------------------|
E||-------|-------|-------|-------|-------|-------|-------|-------||------------------------------|


  E   Q    Q.     Q                         Q     Q     E   Q     E     E   Q    Q.     Q                     
--L--12----L-----------|-------|-------|--/12----12--------12----15--|--L--12----L-----------|-------|-------|
-----------------------|-------|-------|---------------15------------|-----------------------|-------|-------|
-----------------------|-------|-------|-----------------------------|-----------------------|-------|-------|
-----------------------|-------|-------|-----------------------------|-----------------------|-------|-------|
-----------------------|-------|-------|-----------------------------|-----------------------|-------|-------|
-----------------------|-------|-------|-----------------------------|-----------------------|-------|-------|


   Q     Q     E   Q     E     E   H        E   Q        E   Q     Q     Q     E   
--13----13----13--13----13--|--L--13--------L--13----|--13--13----13----13----13--|
----------------------------|------------------------|----------------------------|
----------------------------|------------------------|----------------------------|
----------------------------|------------------------|----------------------------|
----------------------------|------------------------|----------------------------|
----------------------------|------------------------|----------------------------|


   E   Q     Q     Q     E      H        H                                                         
---L--13----15----13----12--|---L-----------------|-----------|-----------|-----------|-----------|
----------------------------|---------------------|-----------|-----------|-----------|-----------|
----------------------------|---------------------|-----------|-----------|-----------|-----------|
----------------------------|---------------------|-----------|-----------|-----------|-----------|
----------------------------|---------------------|-----------|-----------|-----------|-----------|
----------------------------|---------------------|-----------|-----------|-----------|-----------|


            5x
------------||
------------||
-----------*||
-----------*||
------------||
------------||


Left Harmony

                                                                         Q     Q     E   Q     E   
E||-------|-------|-------|-------|-------|-------|-------|-------||------------------------------|
B||-------|-------|-------|-------|-------|-------|-------|-------||---/12----12--------12----15--|
G||-------|-------|-------|-------|-------|-------|-------|-------||*---------------14------------|
D||-------|-------|-------|-------|-------|-------|-------|-------||*-----------------------------|
A||-------|-------|-------|-------|-------|-------|-------|-------||------------------------------|
E||-------|-------|-------|-------|-------|-------|-------|-------||------------------------------|


  E   Q    Q.     Q                         Q     Q     E   Q     E     E   Q    Q.     Q                     
-----------------------|-------|-------|-----------------------------|-----------------------|-------|-------|
--L--12----L-----------|-------|-------|--/12----12--------12----15--|--L--12----L-----------|-------|-------|
-----------------------|-------|-------|---------------14------------|-----------------------|-------|-------|
-----------------------|-------|-------|-----------------------------|-----------------------|-------|-------|
-----------------------|-------|-------|-----------------------------|-----------------------|-------|-------|
-----------------------|-------|-------|-----------------------------|-----------------------|-------|-------|


   Q     Q     E   Q     E     E   H        E   Q        E   Q     Q     Q     E   
----------------------------|------------------------|----------------------------|
--13----13----13--13----13--|--L--13--------L--13----|--13--13----13----13----13--|
----------------------------|------------------------|----------------------------|
----------------------------|------------------------|----------------------------|
----------------------------|------------------------|----------------------------|
----------------------------|------------------------|----------------------------|


  E   Q     Q     Q     E     H        H                                                         
---------------------------|--------------------|-----------|-----------|-----------|-----------|
--L--13----15----13----12--|--L-----------------|-----------|-----------|-----------|-----------|
---------------------------|--------------------|-----------|-----------|-----------|-----------|
---------------------------|--------------------|-----------|-----------|-----------|-----------|
---------------------------|--------------------|-----------|-----------|-----------|-----------|
---------------------------|--------------------|-----------|-----------|-----------|-----------|


            5x
------------||
------------||
-----------*||
-----------*||
------------||
------------||


Rhythm

     Q     E  Q     E  Q        E  Q     E  E   E   E   E     Q     E  Q     E  Q     
D||-------------------------|------------------------------|-------------------------|
A||-------------------------|------------------------------|-------------------------|
F||-------11-------11-------|--11-------11-----11--11--12--|-------11-------11-------|
C||-------11-------11-------|--11-------11-----11--11--12--|-------11-------11-------|
G||--------9--------9-------|---9--------9------9---9--10--|--------9--------9-------|
C||-------------------------|------------------------------|-------------------------|


   E  Q     E  E   E   E   E     W                   W                   W                 
------------------------------|-------------------|-------------------|-------------------|
------------------------------|-------------------|-------------------|-------------------|
--11-------11-----11--11--12--|--7----------------|--9----------------|--6----------------|
--11-------11-----11--11--12--|--7----------------|--9----------------|--6----------------|
---9--------9------9---9--10--|--5----------------|--7----------------|--4----------------|
------------------------------|-------------------|-------------------|-------------------|


                         PM PM PM PM PM PM PM PM    PM PM PM PM PM PM PM PM    PM PM PM PM PM PM PM PM  
  H.           Q         E  E  E  E  E  E  E  E     E  E  E  E  E  E  E  E     E  E  E  E  E  E  E  E   
--------------------||---------------------------|--------------------------|--------------------------|
--------------------||---------------------------|--------------------------|--------------------------|
--L-----------------||*--------6--------6--------|--6--------6--------6--6--|--------2--------2--------|
--L-----------------||*--------6--------6--------|--6--------6--------6--6--|--------2--------2--------|
--L-----------------||---------4--------4--------|--4--------4--------4--4--|--------0--------0--------|
--------------------||---4--4-----4--4-----4--4--|-----4--4-----4--4--------|--0--0-----0--0-----0--0--|


  PM PM PM PM PM PM PM PM    PM PM PM PM PM PM PM PM    PM PM PM PM PM PM PM PM    PM PM PM PM PM PM PM PM  
  E  E  E  E  E  E  E  E     E  E  E  E  E  E  E  E     E  E  E  E  E  E  E  E     E  E  E  E  E  E  E  E   
--------------------------|--------------------------|--------------------------|--------------------------|
--------------------------|--------------------------|--------------------------|--------------------------|
--------4--------4--------|--------6--------6--------|--6--------6--------6--6--|--------2--------2--------|
--------4--------4--------|--------6--------6--------|--6--------6--------6--6--|--------2--------2--------|
--------2--------2--------|--------4--------4--------|--4--------4--------4--4--|--------0--------0--------|
--2--2-----2--2-----2--2--|--4--4-----4--4-----4--4--|-----4--4-----4--4--------|--0--0-----0--0-----0--0--|


  PM PM PM PM PM PM PM PM    PM PM PM PM PM PM PM PM    PM PM PM PM PM PM PM PM    PM PM PM PM PM PM PM PM  
  E  E  E  E  E  E  E  E     E  E  E  E  E  E  E  E     E  E  E  E  E  E  E  E     E  E  E  E  E  E  E  E   
--------------------------|--------------------------|--------------------------|--------------------------|
--------------------------|--------------------------|--------------------------|--------------------------|
--------4--------4--------|--------7--------7--------|--7--------7--------7-----|--------------------------|
--------4--------4--------|--------5--------5--------|--5--------5--------5-----|--------------------------|
--------2--------2--------|--------------------------|--------------------------|--------9-----7-----5-----|
--2--2-----2--2-----2--2--|--5--5-----5--5-----5--5--|-----5--5-----5--5-----5--|--5--5-----5-----5-----5--|


  PM PM PM PM PM PM PM PM    PM PM PM PM PM PM PM PM    PM PM PM PM PM PM PM PM    PM PM PM PM PM PM PM PM  
  E  E  E  E  E  E  E  E     E  E  E  E  E  E  E  E     E  E  E  E  E  E  E  E     E  E  E  E  E  E  E  E   
--------------------------|--------------------------|--------------------------|--------------------------|
--------------------------|--------------------------|--------------------------|--------------------------|
--------------------------|-----6--6-----6--------6--|--6--6--------6-----6--4--|-----6--6-----6--------6--|
--------------------------|-----4--4-----4--------4--|--4--4--------4-----4--2--|-----4--4-----4--------4--|
--7-----5-----4-----2-----|--------------------------|--------------------------|--------------------------|
-----5-----5-----5-----5--|--4--------4-----4--4-----|--------4--4-----4--------|--4--------4-----4--4-----|


  PM PM PM PM PM PM PM PM    PM   PM   PM   PM       PM    PM    PM    PM      
  E  E  E  E  E  E  E  E     Q    Q    Q    Q        Q     Q     Q     Q     5x
--------------------------|----------------------|---------------------------||
--------------------------|----------------------|---------------------------||
--6--6--------6-----6--4--|--6----7----8----9----|--10----11----12----13----*||
--4--4--------4-----4--2--|--4----5----6----7----|---8-----9----10----11----*||
--------------------------|----------------------|---------------------------||
--------4--4-----4--------|----------------------|---------------------------||



Bass

     E  E  E  E  Q    E  E     Q    E  E  E  E  E  E     E  E  E  E  Q    E  E     Q    E  E  E  E  E  E   
G||-------------------------|-------------------------|-------------------------|-------------------------|
D||--2--2-----2--2----2--2--|--2-------2--2-----0--3--|--2--2-----2--2----2--2--|--2-------2--2-----0--3--|
A||-------------------------|----------------2--------|-------------------------|----------------2--------|
E||-------------------------|-------------------------|-------------------------|-------------------------|


  E  E  E  E  E  E  E  E     E  E  E  E  E  E  E  E     W                   W                 
--------------------------|--------------------------|-------------------|-------------------|
--------5-----------5-----|--------7-----------7-----|-------------------|-------------------|
--3--3-----3--3--3-----3--|--5--5-----5--5--5-----5--|--2----------------|--L----------------|
--------------------------|--------------------------|-------------------|-------------------|


    E  E  E  E  E  E  E  E     E  E  E  E  E  E  E  E     E  E  E  E  E  E  E  E     E  E  E  E  E  E  E  E   
|---------4-----------4-----|--------4-----------4-----|--------------------------|--------------------------|
|*--2--2-----2--2--2-----2--|--2--2-----2--2--2-----2--|--------5-----------5-----|--------7-----------7-----|
|*--------------------------|--------------------------|--3--3-----3--3--3-----3--|--5--5-----5--5--5-----5--|
|---------------------------|--------------------------|--------------------------|--------------------------|


  E  E  E  E  E  E  E  E     E  E  E  E  E  E  E  E     E  E  E  E  E  E  E  E     E  E  E  E  E  E  E  E   
--------4-----------4-----|--------4-----------4-----|--------------------------|--------------------------|
--2--2-----2--2--2-----2--|--2--2-----2--2--2-----2--|--------5-----------5-----|--------7-----------7-----|
--------------------------|--------------------------|--3--3-----3--3--3-----3--|--5--5-----5--5--5-----5--|
--------------------------|--------------------------|--------------------------|--------------------------|


  E  E   E  E  E  E   E  E     E  E   E  E  E  E   E  E      E  E  E  E  E  E   E  E   
--------10-----------10-----|--------10-----------10-----|--10-----9-----7------------|
----------------------------|----------------------------|---------------------10-----|
--8--8------8--8--8------8--|--8--8------8--8--8------8--|------8-----8-----8------8--|
----------------------------|----------------------------|----------------------------|


  E  E   E  E  E  E  E  E     E  E  E  E  E  E  E  E     E  E  E  E  E  E  E  E     E  E  E  E  E  E  E  E   
--7------------------------|--------------------------|--------------------------|--------------------------|
--------10-----9-----7-----|--------------------------|--------------------------|--------------------------|
-----8------8-----8-----8--|--7--------------------7--|--7--------------------7--|--7--------7--7--------7--|
---------------------------|--------------------------|--------------------------|--------------------------|


  E  E  E  E  E  E  E  E     E  E  E  E  E  E   E   E      E   E  E  E  E  E  E  E   5x
--------------------------|----------------------------|-----------------------------||
--------------------------|----------------------------|----------7--7--8--8--9--9--*||
--7--------7--7--------7--|--7--7--8--8--9--9--10--10--|--11--11--------------------*||
--------------------------|----------------------------|-----------------------------||
Login or Register to remove this ad.