Ads

Erathia (Might and Magic VII: For Blood and Honor) Guitar Tab

Submitted: Jun 27, 2014 by Matatiahu (Last updated: Jul 17, 2014)

5
Average: 5 (1 vote)
Download | Listen
Game: Might and Magic VII: For Blood and Honor
Composer(s): Paul Anthony Romero
Style: Arrangement, Fingerstyle

Click here for a video example.

AutoScroll: Slow | Medium | Fast
                             Might & Magic VII: For Blood and Honor
                                            Erathia
                                      Paul Anthony Romero


Capo on the fourth fret


E||-----------------|-----------------|-----------------|----------0------
B||-----------------|-----------------|-----------------|--3-----------3--
G||-----------------|------0-2-0------|-----------------|------0-2-0------
D||----2------------|--4--------------|----2------------|--4--------------
A||----------2------|-----------------|----------2------|-----------------
E||--0---2-3-----3--|----------0------|--0---2-3-----3--|----------0------

--0--------------|------------0----|-----------------|--0--------------
-----------------|-----------------|---------1-------|--0-0-----0------
-----------------|--------0--------|-------------2---|------0-2--------
----2------------|--4---4----------|-----------------|--------------1--
----------2------|-----------------|-----------------|--2-------0------
--0---2-3-----3--|-----------------|-----------------|-----------------

-----------------|
-----------------|
--0--------------|
--2--------------|
-----------------|
--0--------------|
		 
--0---2-3-7---3---2---3-5-3-------|--0---2-3-7---3---2---3-5-3-------|
----------------------------0-----|----------------------------1-----|
--------------0-------0-------0---|--------------0-------0-------0---|
------2-----0---0---1---1-------2-|------2-----0---0---1---1-------2-|
----2---2---------2---------------|----2---2---------2-------3-------|
--0-------3---------------0-------|--0-------3-----------------------|

--0---2-3-7---3---2---2-3-12------|--12--------7-------0-------------|
----------------------------------|----12-8-10-----4-----0-----------|
--------------0-------0-----9-----|------------------------0---------|
------2-----0---0---1---1----10---|--------------------2-------------|
----2---2---------2------------10-|------------6-------------2-------|
--0-------3---------------8-------|--7-------------------------0-----|

----------0------|--0---2---3-----|----------0------|--0-------------|
--------1--------|----------------|--------1--------|------3---0-----|
------0----------|----------------|------0----------|----------------|
----2------------|----------------|----2------------|----------------|
--3-----------33-|--2----------2--|--33----------33-|--22------------|
--3-----------33-|--0----------0--|--33----------33-|--00------------|

----------0-------0---2---3-------|----------3---2--
--------1-1-----------------0-----|--4---0----------
------0-----0-----------------0---|----2---2--------
----2---------2-------2---------2-|--1--------------
--3-------------3---2---2---------|-----------------
------------------0-------0-------|-----------------

--0---------------|
----0-------------|
------0-----------|
--2---------------|
--------2---------|
----------0-------|
Login or Register to remove this ad.