Intro and Theme (Metroid Metal Version) (Metroid) Guitar Tab

Submitted: Oct 07, 2009 by soundsandstuff (Last updated: Oct 07, 2009)

5
Average: 5 (1 vote)
Download | Listen
Game: Metroid
Composer(s): Hirokazu Tanaka
Style: Arrangement, Tapping, Transcription
Series: Metroid

AutoScroll: Slow | Medium | Fast
Metroid Metal - Stemage - Intro and Theme
Platform: NES
Developer: Nintendo
Composed by: Hirokazu "Hip" Tanaka
Original Remix by: Grant Henry, aka Stemage http://www.metroidmetal.com

Guitar Tab Created By: soundsandstuff www.youtube.com/user/soundsandstuff
Completed on 10/7/09



Intro
========================================================== A

E|-10-8-10-8-10-8-10-8--17-8-17-8-17-8-17-8-17---|
B|-----------------------------------------------|
G|-----------------------------------------------|
D|-----------------------------------------------|
A|-----------------------------------------------|
E|-----------------------------------------------|

E|-----------------------------------------------|
B|-18-11-18-11-18-11-18-11--17-8-17-8-17-8-17-8--|
G|-----------------------------------------------|
D|-----------------------------------------------|
A|-----------------------------------------------|
E|-----------------------------------------------|

E|----------------------15--14-------------------|
B|-15-5-15-5-15-5-15-5----------15---------------|
G|-----------------------------------------------|
D|-----------------------------------------------|
A|-----------------------------------------------|
E|-----------------------------------------------|

E|-----------------------------------------------|
B|-15--------------------------------------------|
G|-14--------------------------------------------|
D|-12--------------------------------------------|
A|-----------------------------------------------|
E|-----------------------------------------------|


Theme
================================================================================ B

E|---------------18-18-18-18---------------------|
B|-----------------------------18-18-18----------|
G|-19-19-19-19-----------------------------------|
D|-----------------------------------------------|
A|-----------------------------------------------|
E|-----------------------------------------------|

E|---------------20-20-20-20---18-18-18-18-------|
B|-----------------------------------------------|
G|-19-19-19-19-----------------------------------|
D|-----------------------------------------------|
A|-----------------------------------------------|
E|-----------------------------------------------|

E|---------------18-18-18-18------------------------------------------------|
B|-----------------------------18-18-18-18-------------------20--20--19-19--|
G|-19-19-19-19-------------------------------19--19--19-19------------------|
D|--------------------------------------------------------------------------|
A|--------------------------------------------------------------------------|
E|--------------------------------------------------------------------------|

E|---------------20-20-20-20---18-18-18-18-------|
B|-----------------------------------------------|
G|-19-19-19-19-----------------------------------|
D|-----------------------------------------------|
A|-----------------------------------------------|
E|-----------------------------------------------|

============================================================================================== C

E|-17------15------14------12-------15------14------12-----10-----|
B|----------------------------------------------------------------|
G|-----14------12------11------9--------12------11------9------7--|
D|----------------------------------------------------------------|
A|----------------------------------------------------------------|
E|----------------------------------------------------------------|

E|-17------15------14------12-------15------14------12-----10-----|
B|----------------------------------------------------------------|
G|-----14------12------11------9--------12------11------9------7--|
D|----------------------------------------------------------------|
A|----------------------------------------------------------------|
E|----------------------------------------------------------------|

============================================================================================================ D

E|----------------------------------------------------------------|
B|--------------------7--8--8-10----8-7-8----8-7------------------|
G|--------------7--9-----------------------------9----------------|
D|--------7--9----------------------------------------------------|
A|-9--10----------------------------------------------------------|
E|----------------------------------------------------------------|

E|------------10--------------------------------------------------|
B|--------10------------10-11--10--8--7---7-10-7------------------|
G|-7--------------------------------------------------------------|
D|----------------------------------------------------------------|
A|----------------------------------------------------------------|
E|----------------------------------------------------------------|

E|---------------10-----------------------------------------------|
B|------7--10-----------------------------------------------------|
G|-9-----------------9----9-10-9--7-------------------------------|
D|----------------------------------------------------------------|
A|----------------------------------------------------------------|
E|----------------------------------------------------------------|

E|----------------------------------------------------------------|
B|----------------------------------------------------------------|
G|-----------7----7-9----7----------------------------------------|
D|-7----9------------------------8--------------------------------|
A|----------------------------------10----------------------------|
E|----------------------------------------------------------------|

====================================================================================================================== E

E|-----------10--------8------------------------------------------|
B|----7--10---------6-----10--------------------------------------|
G|-9-------------7------------------------------------------------|
D|----------------------------------------------------------------|
A|----------------------------------------------------------------|
E|----------------------------------------------------------------|

E|-------10-------------------------------------------------------|
B|----8------11--10-----------------------------------------------|
G|-8-----------------9-----9--------------------------------------|
D|----------------------9-----------------------------------------|
A|----------------------------------------------------------------|
E|----------------------------------------------------------------|

E|----------------------------------------------------------------|
B|-9--------------------------------------------------------------|
G|----9-----9-----------------------------------------------------|
D|-------9--------------------------------------------------------|
A|----------------------------------------------------------------|
E|----------------------------------------------------------------|

====================================================================================================================================== F


E|---------------18-18-18-18---------------------|
B|-----------------------------18-18-18----------|
G|-19-19-19-19-----------------------------------|
D|-----------------------------------------------|
A|-----------------------------------------------|
E|-----------------------------------------------|

E|---------------20-20-20-20---18-18-18-18-------|
B|-----------------------------------------------|
G|-19-19-19-19-----------------------------------|
D|-----------------------------------------------|
A|-----------------------------------------------|
E|-----------------------------------------------|

E|---------------18-18-18-18------------------------------------------------|
B|-----------------------------18-18-18-18-------------------20--20--19-19--|
G|-19-19-19-19-------------------------------19--19--19-19------------------|
D|--------------------------------------------------------------------------|
A|--------------------------------------------------------------------------|
E|--------------------------------------------------------------------------|

E|---------------20-20-20-20---18-18-18-18-------|
B|-----------------------------------------------|
G|-19-19-19-19-----------------------------------|
D|-----------------------------------------------|
A|-----------------------------------------------|
E|-----------------------------------------------|

========================================================================================================================================================== G

E|-15--14-------------------------------------------------------------|
B|---------15---------------------------------------------------------|
G|-------------14--12--11--12--14-------------------------------------|
D|---------------------------------12--14----------14-----------------|
A|-----------------------------------------12--14---------------------|
E|--------------------------------------------------------------------|

E|-15--14-------------------------------------------------------------|
B|---------15---------------------------------------------------------|
G|-------------14--12--11--12--14-------------------------------------|
D|---------------------------------12--14----------14-----------------|
A|-----------------------------------------12--14---------------------|
E|--------------------------------------------------------------------|

E|-15--14-------------------------------------------------------------|
B|---------15---------------------------------------------------------|
G|-------------14--12--11--12--14-------------------------------------|
D|---------------------------------12--14----------14-----------------|
A|-----------------------------------------12--14---------------------|
E|--------------------------------------------------------------------|

========================================================================================================================================================================= End

Notes:

- This tab was made according to how I played it in my youtube video
- The Intro and Theme tracks are actually two separate tracks, I just combined them in my youtube video and this tab
- There are two lead guitars in the original track, this tab is for Guitar 1.  The only difference is that section C (originally played by Guitar 2) is included in the youtube video and this tab.

- Thank you for watching!!
Login or Register to remove this ad.