Title Theme (Metroid Prime) Guitar Tab

Submitted: Dec 18, 2014 by Gimmy94

4.5
Average: 4.5 (2 votes)
Download | Listen
Game: Metroid Prime
Composer(s): Kenji Yamamoto
Style: 2 or more instruments, Transcription
Series: Metroid

AutoScroll: Slow | Medium | Fast
----------------------------------------------------------------------------------------------------------------
                                  Metroid Prime Title Theme  - Kenji Yamamoto
----------------------------------------------------------------------------------------------------------------
Tabbed by: Giammarco Boscaro
E-mail: [email protected]

Tuning: EADGBe

Intro

(0:00 - 0:13)
e|---------------------------|---------------------------|---------------------------|---------------------------|
B|---------------------------|---------------------------|---------------------------|---------------------------|
G|-------------1-------------|---------------------------|-------------3-------------|-1-------------------------|
D|---------------------------|-1-------------------------|---------------------------|---------------------------|
A|-3-------------------------|---------------------------|-3-------------------------|---------------------------|
E|---------------------------|---------------------------|---------------------------|---------------------------|

(0:13 - 0:16)
e|---------------------------|
B|---------------------------|
G|---------1--0--------------|
D|----------------------3----|
A|----1-3--------3--1-3---3--|
E|---------------------------|


Verse

(0:16 - 0:29)
e|---------------------------|---------------------------|---------------------------|---------------------------|
B|---------------------------|---------------------------|---------------------------|---------------------------|
G|-------------12------------|---------------------------|-------------15------------|-13------------------------|
D|---------------------------|-13------------------------|---------------------------|---------------------------|
A|-15------------------------|---------------------------|-15------------------------|---------------------------|
E|---------------------------|---------------------------|---------------------------|---------------------------|
(Background)
e|---------------------------|---------------------------|---------------------------|---------------------------|
B|---------------------------|---------------------------|---------------------------|---------------------------|
G|---------1--0--------------|---------1--0--------------|---------1--0--------------|---------1--0--------------|
D|----------------------3----|----------------------3----|----------------------3----|----------------------3----|
A|-3--1-3--------3--1-3---3--|-3--1-3--------3--1-3---3--|-3--1-3--------3--1-3---3--|-3--1-3--------3--1-3---3--|
E|---------------------------|---------------------------|---------------------------|---------------------------|


Chorus

(0:35 - 0:48)
e|---------------------------|---------------------------|---------------------------|---------------------------|
B|---------------------------|---------------------------|---------------------------|---------------------------|
G|------12-------------------|---------------------------|------12-------------------|---------------------------|
D|-----------15---13--15--12-|------12-------------------|-----------15---13--15--12-|------12---13--------------|
A|-15------------------------|-13-------15---------------|-15------------------------|-13------------------------|
E|---------------------------|---------------------------|---------------------------|---------------------------|
(Background)
e|---------------------------|---------------------------|---------------------------|---------------------------|
B|---------------------------|---------------------------|---------------------------|---------------------------|
G|---------1--0--------------|---------1--0--------------|---------1--0--------------|---------1--0--------------|
D|----------------------3----|----------------------3----|----------------------3----|----------------------3----|
A|-3--1-3--------3--1-3---3--|-3--1-3--------3--1-3---3--|-3--1-3--------3--1-3---3--|-3--1-3--------3--1-3---3--|
E|---------------------------|---------------------------|---------------------------|---------------------------|


Bridge

(0:48 - 1:00)
e|---------------------------|---------------------------|---------------------------|---------------------------|
B|---------------------------|---------------------------|---------------------------|---------------------------|
G|-------------1-------------|---------------------------|-------------3-------------|-1-------------------------|
D|---------------------------|-1-------------------------|---------------------------|---------------------------|
A|-3-------------------------|---------------------------|-3-------------------------|---------------------------|
E|---------------------------|---------------------------|---------------------------|---------------------------|
(Background)
e|---------------------------|---------------------------|---------------------------|---------------------------|
B|---------------------------|---------------------------|---------------------------|---------------------------|
G|---------1--0--------------|---------1--0--------------|---------------------------|---------------------------|
D|----------------------3----|----------------------3----|---------------------------|---------------------------|
A|-3--1-3--------3--1-3---3--|-3--1-3--------3--1-3---3--|---------------------------|---------------------------|
E|---------------------------|---------------------------|---------------------------|---------------------------|

(1:00 - 1:04)
e|---------------------------|
B|---------------------------|
G|---------1--0--------------|
D|----------------------3----|
A|----1-3--------3--1-3---3--|
E|---------------------------|

Verse
Chorus
Bridge
Verse (Fade)
Login or Register to remove this ad.