Ads

Crashed Ship Frigate Orpheon (Metroid Prime) Guitar Tab

Submitted: Sep 30, 2014 by Sage (Last updated: Oct 13, 2014)

4.5
Average: 4.5 (2 votes)
Download | Listen
Game: Metroid Prime
Composer(s): Kenji Yamamoto
Style: Transcription
Series: Metroid

This song is also called Underwater Frigate Orpheon

AutoScroll: Slow | Medium | Fast
Song: Underwater Frigate 
Game: Metroid Prime
Composers: Kenji Yamamato & Kouichi Kyuma 
Tabbed by: Jackson Harris
Date Created: 9/14/2014

0:12
e|-------5--3--1-0---------1--3--5-3-|
B|----3-----------------3------------|
G|-2-----------------2---------------|(x2)
D|-----------------------------------|
A|-----------------------------------|
E|-----------------------------------|

0:42
e|-3--5---7-5---3--5---7-8-10-12--10-|
B|-----------------------------------|
G|-----------------------------------|
D|-----------------------------------|
A|-----------------------------------|
E|-----------------------------------|

0:57
e|-1--0--------0--1--3--5---1--0--------1--013---|
B|-------1------------------------1------------3-|
G|---------0------------------------0------------|
D|-----------------------------------------------|
A|-----------------------------------------------|
E|-----------------------------------------------|

1:25
e|-1--1--0--0--0---1--1--0--0--0-----5--5--7--7--7---5--5--7--7--7--|
B|--3--3--1--1--1---3--3--1--1--1-----6--6--8--8--8---6--6--8--8--8-|
G|------------------------------------------------------------------|(x2)
D|------------------------------------------------------------------|
A|------------------------------------------------------------------|
E|------------------------------------------------------------------|

1:54
e|-1--0--------5--3--1--0-1-3-5----1--0--3----------------------|
B|-------1---------------------------------3--------------------|
G|---------0-----------------------------------2--0-------------|
D|---------------------------------------------------3--2-3-2-0-|
A|--------------------------------------------------------------|
E|--------------------------------------------------------------|


Alternative Version

0:12
e|----------------------------------------|
B|-------10--8--------------------8--10-8-|
G|----7---------10-9-------7--10----------|(x2)
D|-7--------------------7-----------------|
A|----------------------------------------|
E|----------------------------------------|

0:42
e|--------7-----------------------12-----|
B|-8--10----10---8--10---12-13-15-----15-|
G|---------------------------------------|
D|---------------------------------------|
A|---------------------------------------|
E|---------------------------------------|

0:57
e|-13--12----------12--13--15--17---13--12----------13--12-13-15----|
B|---------13-------------------------------13-------------------15-|
G|------------12-------------------------------12-------------------|
D|------------------------------------------------------------------|
A|------------------------------------------------------------------|
E|------------------------------------------------------------------|

1:25
e|-13---13---12---12---12---13---13---12---12---12-----17---17---19---19---19---17---17---19---19---19---|
B|---15---15---13---13---13---15---15---13---13---13-----18---18---20---20---20---18---18---20---20---20-|
G|-------------------------------------------------------------------------------------------------------|(x2)
D|-------------------------------------------------------------------------------------------------------|
A|-------------------------------------------------------------------------------------------------------|
E|-------------------------------------------------------------------------------------------------------|

1:54
e|-13--12----------17--15------------15-17---13--12--15------------------------------|
B|---------13--------------18--17-18--------------------15---------------------------|
G|------------12---------------------------------------------14--12------------------|
D|-------------------------------------------------------------------15--14-15-14-12-|
A|-----------------------------------------------------------------------------------|
E|-----------------------------------------------------------------------------------|
Login or Register to remove this ad.

5 comments on Crashed Ship Frigate Orpheon

I don't like leaving bad

2

I don't like leaving bad ratings without saying what made it bad.
Simply, while the notes are accurate, there is no way of telling where each part plays or where the long rests are, because there are a lot. And the last 3 lines should be up an octave. This could have been a great tab, if only more time had been put into it.

Yes I agree with your view

Yes I agree with your view point and wish I had more time to put in to this tab than I had, but as you can tell it was written without much thoughts to the rests and such. I'll certainly revise the tab and re upload it when I find some time

Great! Glad to hear it!

Great! Glad to hear it!

Updated!

Hope this is better!

Much better now. Great job!

4

Much better now. Great job!