Ads

Bryyo Cliffside (Metroid Prime 3: Corruption) Guitar Tab

Submitted: Nov 07, 2017 by DovaTabber

0
Download | Listen
Game: Metroid Prime 3: Corruption
Composer(s): Kenji Yamamoto, Minako Hamano, Masaru Tajima
Style: 2 or more instruments, Transcription
Series: Metroid

AutoScroll: Slow | Medium | Fast
Metroid Prime 3 Corruption
Bryyo Cliffside
Composed by Kenji Yamamoto
Tabbed by DovaTabber 7/11/2017

Standard Tuning

Backing (Repeats through song)
E|----------------|
B|----------------|
G|----------------|
D|----------------|
A|------------1---|
E|-3-----3--------|

Verse 1 (x2)

E|-3--------------|----------------|-1--------------|------------1---|----------------|
B|----------------|-3--------------|----------------|-4-----4--------|-3--------------|
G|----------------|----------------|----------------|----------------|----------------|
D|----------------|----------------|----------------|----------------|----------------|
A|----------------|----------------|----------------|----------------|----------------|
E|----------------|----------------|----------------|----------------|----------------|

Verse 2 (x2)

E|------------------|----------------|----------------------|----------------|
B|-3----------1-----|-1--------------|---------1------------|----------------|
G|---------------3--|----------------|-2---3-------2--------|-0--------------|
D|------------------|----------------|------------------3---|----------------|
A|------------------|----------------|----------------------|----------------|
E|------------------|----------------|----------------------|----------------|

Verse 3 (x2)

E|----------------|-1----3------------|-------------------|----------------|
B|-3--------------|----------3--------|-1-----------------|----------------|
G|----------------|-------------------|------3---2--------|-0--------------|
D|----------------|-------------------|---------------3---|----------------|
A|----------------|-------------------|-------------------|----------------|
E|----------------|-------------------|-------------------|----------------|

Verse 4

E|----------------|-1-----------------|---------------1---|----------------|
B|-3--------------|------4---3--------|-1----3---4--------|-3--------------|
G|----------------|-------------------|-------------------|----------------|
D|----------------|-------------------|-------------------|----------------|
A|----------------|-------------------|-------------------|----------------|
E|----------------|-------------------|-------------------|----------------|

E|----------------|-1-----------------|-6---5---3---1----5---|-3--------------|
B|-3--------------|------4---3--------|----------------------|----------------|
G|----------------|-------------------|----------------------|----------------|
D|----------------|-------------------|----------------------|----------------|
A|----------------|-------------------|----------------------|----------------|
E|----------------|-------------------|----------------------|----------------|
Login or Register to remove this ad.