Ads

Last Ditch Resistance (Metal Slug 5) Guitar Tab

Submitted: Dec 31, 2011 by LynyrdSkynyrd4

5
Average: 5 (1 vote)
Download | Listen
Game: Metal Slug 5
Composer(s): Toshikazu Tanaka
Style: Alternate picking, Transcription
Series: Metal Slug

AutoScroll: Slow | Medium | Fast
e|-----------------------
B|-----------------------
G|-----------------------
D|----------------------- x3
A|-1--1--2--1--4--2--5--4
D|-1--1--2--1--4--2--5--4
 
  -----------
  -----------
  -----------
  -----------
  -1--1--2--1
  -1--1--2--1

  ---------------------------------------------------
  ---------------------------------------------------
  ---------------------------------------------------
  -8--8----8--8----8--11-9----8--8----8--8----8--9--6 x2
  -6--6----6--6----6--9--7----6--6----6--6----6--7--4
  ---------------------------------------------------

  -6~---5~--------6~---6/9~------6~---5~--------6~---6--2
  -4~---4~---4-4--4~---4/7~------4~---4~---4-4--4~---4--1
  ------------5-----------------------------5------------
  -------------------------------------------------------
  -------------------------------------------------------
  -------------------------------------------------------

  -11~---11/12~---12-9-12-11~---9--8------11~---11/12~---12-9-12-11~---11--12--14
  -11~---11/12~---12-9-12-11~---9--7------11~---11/12~---12-9-12-11~---11--12--14
  -------------------------------------------------------------------------------
  -------------------------------------------------------------------------------
  -------------------------------------------------------------------------------
  -------------------------------------------------------------------------------

  --------------------------------------------------
  --------------------------------------------------
  ------------------------------4--5~-----------7h8~
  ----------------------7---6----------------6------
  ------6---5---9---8-------------------------------
  -/6-----------------------------------------------

  ------------------------------------------------
  -/9---8-------7---6-----------------------------
  ----------8-----------7----------7~-----------8~
  --------------------------9---6------------6----
  ------------------------------------------------
  ------------------------------------------------

  -----------------------------------------------------------------------------------------
  -----------------------------------------------------------------------------------------
  ----14-15-17--15-14----15~----17-15-14-------------------------------------14----14-15-14
  /14-----------------17------------------17-15--17-14-------14-15-17--15-14----17---------
  --------------------------------------------------------17-------------------------------
  -----------------------------------------------------------------------------------------

  ----------------------------------------------------
  ----------------------------------------------------
  ----14-15-17--15-14----15~----17-15-14--------------
  /14-----------------17------------------17-15--17-14
  ----------------------------------------------------
  ----------------------------------------------------

  --------------------------------------------------
  --------------------------------------------------
  --------------15-14--15-17---17----18-18----19-20~
  ----14-15-17--------------------17-------17-------
  -17-----------------------------------------------
  --------------------------------------------------

  -----------------------
  -----------------------
  -----------------------
  ----------------------- x3
  -1--1--2--1--4--2--5--4
  -1--1--2--1--4--2--5--4
 
  -----------
  -----------
  -----------
  -----------
  -1--1--2--1
  -1--1--2--1


 
 
Login or Register to remove this ad.

1 comment on Last Ditch Resistance

Yeah

5

50315_177845592638_7473438_q.jpg