Intrigue (Metal Slug 5) Guitar Tab

Submitted: Dec 21, 2011 by LynyrdSkynyrd4 (Last updated: Dec 22, 2011)

5
Average: 5 (1 vote)
Download | Listen
Game: Metal Slug 5
Composer(s): Toshikazu Tanaka
Style: 2 or more instruments, Alternate picking
Series: Metal Slug

Click here for a video example.

AutoScroll: Slow | Medium | Fast
Metal Slug 5 - Intrigue
Composed by Toshikazu Tanaka
Tabbed by LynyrdSkynyrd4


 / - slide
 . - palm mute
    


e|-----------------------------------------------------------------------------------
B|-----------------------------------------------------------------------------------
G|-----------------------------------------------------------------------------------
D|-----------------------------------------------------------------------5--5--7--5/7
A|-5-/7--7-------------7----5-/7--7-----3-4-5----5-/7--7-------------7---3--3--5--3/5
E|-3-/5--5-5-5-5-5-5-5-5----3-/5--5-5-5----------3-/5--5-5-5-5-5-5-5-5---------------
           . . . . . .              . .                  . . . . . .    
  
  --------------------------------------------------------------------------------------
  --------------------------------------------------------------------------------------
  --------------------------------------------------------------------------------------              
  ----------------------------------------------------------------------7--5--4--5--4---
  -5-/7--7-------------7----5-/7--7-----3-4-5---5-/7--7-------------7---5--3--2--3--2--5
  -3-/5--5-5-5-5-5-5-5-5----3-/5--5-5-5---------3-/5--5-5-5-5-5-5-5-5------------------3
           . . . . . .              . .                 . . . . . .       

                           * Repeat the sequence above twice
 
  
  ----------------------------------
  ------12--------------------------
  -/9------12----11-----------------
  ------------------12----10-9------
  -----------------------------10---
  --------------------------------12

  --------------------------------
  ------12----------------12-13-12
  -/9------12----11-14------------
  --------------------------------
  --------------------------------
  --------------------------------

 
  Guitar 1
  ----------------------------------
  ------12--------------------------
  -/9------12----11-----------------
  ------------------12----10-9------
  -----------------------------10---  H
  --------------------------------12  A
  Guitar 2                            R
  ----------------------------------- M
  ------15-12------------------------ O
  -/14-----------14-11--------------- N
  ------------------------14-12------ Y
  ------------------------------14---
  ---------------------------------15

 
  Guitar 1
  ---------------------------------
  ------12-13----12----12-13-12-/17
  -/9---------------12-------------
  ---------------------------------
  --------------------------------- H
  --------------------------------- A
  Guitar 2                          R
  ------------------------------/17 M
  ------15-17----15----15-17-15---- O
  -/14--------------16------------- N
  --------------------------------- Y
  ---------------------------------
  ---------------------------------


  -----------12------------15-14-----------------------------15-14--------------
  -13-15~-------13~-----12-------15----------13-15-17-13~----------17-15-17---19
  ----------------------------------16------------------------------------------
  ------------------------------------------------------------------------------
  ------------------------------------------------------------------------------
  ------------------------------------------------------------------------------

  -----------12------------15-14----------------------15-----17---
  -13-15~-------13~-----12-------15----------13-15-17-----------17
  ----------------------------------16----------------------------
  ----------------------------------------------------------------
  ----------------------------------------------------------------
  ----------------------------------------------------------------

  ----------13-12---------------
  -------13---------------------
  ----12--------------0---------
  -12-------------------2-1-0---
  ----------------------------3~
  ------------------------------

  ------------------------------------------------------
  ------------------------------------------------------
  ------------------------------------------------------ x3
  ------------------------------------------------------
  -----------------7---3-4-5-------------------7--------
  -5-5-5-5-5-5-5-5-5-----------5-5-5-5-5-5-5-5-5---3-2-1
   . . . . . . . .             . . . . . . . .     
  ---------------------------------------------------------------------
  ---------------------------------------------------------------------
  ---------------------------------------------------------------------
  -----------------------------------------------------------3--2-0----
  -----------------7---3-4-5---------3-4-5---------3-4-5------------3-2
  -5-5-5-5-5-5-5-5-5----------3-4-5---------3-4-5----------------------
   . . . . . . . .  
  -----------------------------------------------------------------------------------
  -----------------------------------------------------------------------------------
  -----------------------------------------------------------------------------------
  -----------------------------------------------------------------------5--5--7--5/7
  -5-/7--7-------------7----5-/7--7-----3-4-5----5-/7--7-------------7---3--3--5--3/5
  -3-/5--5-5-5-5-5-5-5-5----3-/5--5-5-5----------3-/5--5-5-5-5-5-5-5-5---------------
           . . . . . .              . .                  . . . . . . 
  --------------------------------------------------------------------------------------
  --------------------------------------------------------------------------------------
  --------------------------------------------------------------------------------------              
  ----------------------------------------------------------------------7--5--4--5--4---
  -5-/7--7-------------7----5-/7--7-----3-4-5---5-/7--7-------------7---5--3--2--3--2--5
  -3-/5--5-5-5-5-5-5-5-5----3-/5--5-5-5---------3-/5--5-5-5-5-5-5-5-5------------------3
           . . . . . .              . .                 . . . . . .        
 
Login or Register to remove this ad.

1 comment on Intrigue

Great tab, Metal Slug 5

5

Great tab, Metal Slug 5 rocks!