Ads

Furiously (Metal Slug 4) Guitar Tab

Submitted: Jul 19, 2012 by LynyrdSkynyrd4

0
Download | Listen
Game: Metal Slug 4
Composer(s): Toshikazu Tanaka
Style: Alternate picking, Transcription
Series: Metal Slug

AutoScroll: Slow | Medium | Fast
e|----------------------------------------18--19
B|--------------17--18-------20--21-------------
G|-18--19---------------------------------------
D|----------------------------------------------
A|----------------------------------------------
E|----------------------------------------------

  -------------------------------------------------------------------------
  -------------------------------------------------------------------------
  -------------------------------------------------------------------------
  ------------------------------------------------------------------------- x4
  -5---8---8--7---7---7---4--4--4---------5---8---8--7---7---7---10--10--10
  -------------------------------------------------------------------------

  ----------------------------------------------------------------------------------------
  ---------------------17--18--17--------------15--17--15---------------------------------
  ------------14-------------------14--14------------------13--13---13--12-------12-------
  12h14h15p12----------------------------------------------------------------15------15p12 
  ----------------------------------------------------------------------------------------
  ----------------------------------------------------------------------------------------

  ------------------------------------------------
  ------------------------------------------------
  ------------------------------------------------
  ---------------12---------------------14--13--12
  -/12---10-----------13------15---12-------------
  ------------------------------------------------

  ----------------------------------------------------
  ----------------------------------------------------
  ----------------------------------------------12--15
  ---------------12---------------------14--13--------
  -/12---10-----------13------15---12-----------------
  ----------------------------------------------------

  --------------------------------------------------------------15------15--17--------
  -13--15--13--16----15--16/18--16--15------------------15----------16----------15--17
  --------------------------------------18--17--15--17------17------------------------
  ------------------------------------------------------------------------------------
  ------------------------------------------------------------------------------------
  ------------------------------------------------------------------------------------

  -------------------------------------------------------------------------
  -------------------------------------------------------------------------
  -------------------------------------------------------------------------
  ------------------------------------------------------------------------- x4
  -5---8---8--7---7---7---4--4--4---------5---8---8--7---7---7---10--10--10
  -------------------------------------------------------------------------
Login or Register to remove this ad.