Introduction (Metal Gear Solid) Guitar Tab

Submitted: Nov 17, 2017 by Rupert484

0
Download | Listen
Game: Metal Gear Solid
Composer(s): KCE Sound Team Japan, TAPPY
Style: Natural harmonics, Transcription

This song is also called Main Menu

AutoScroll: Slow | Medium | Fast
Introduction
Metal Gear Solid

Kazuki Muraoka, Hiroyuki Togo, Takanari Ishiyama, Lee Jeon Myung
Tabbed by Rupert484

Standard tuning
Tempo 83 BPM

Let ring throughout
       S    S   S   S    S    S    S    S    S   S    S    S    S    S    S    S  3x
E||------------<7>-<7>--------------------------<7>--------------------------------||
B||--<12>-<12>---------<12>-<12>-<12>-<12>-<12>-----<12>-<12>-<12>-<12>-<12>-<12>--||
G||-------------------------------------------------------------------------------o||
D||-------------------------------------------------------------------------------o||
A||--------------------------------------------------------------------------------||
E||--------------------------------------------------------------------------------||


                                                                 Repeat infinitely    
     H        H           W                   H        H           W                  4x
||---0-----------------|--0----------------|--5-----------------|--0------------------||
||---0-----------------|--0----------------|--------------------|--0------------------||
||o--4-----------------|--4----------------|--2-----------------|--4-----------------o||
||o--2--------4--------|--5----------------|--2--------4--------|--2-----------------o||
||---2-----------------|--2----------------|--0-----------------|--2------------------||
||---0-----------------|--0----------------|--------------------|--0------------------||




Duration Legend
---------------
W - whole
H - half
Q - quarter
E - 8th
S - 16th


Tablature Legend
----------------
<> - natural harmonic
||o - repeat start
o|| - repeat end
Login or Register to remove this ad.