Ice Man (Mega Man) Guitar Tab

Submitted: Dec 04, 2014 by ltm_1988

0
Download | Listen
Game: Mega Man
Composer(s): Yoshihiro Sakaguchi, Manami Matsumae
Style: Arrangement, Fingerstyle
Series: Mega Man

AutoScroll: Slow | Medium | Fast
Ice Man
Mega Man
Manami Matsumae
ltm_1988
12/4/2014

    S S E   S E   S S E   S Q         E   E   S E   S Q       Q
E||---------------------------------|---------------------------------|
B||-1-1-------------1-1-------------|---------------------------------|
G||---------0-------------3~--------|---------------------------------|
D||-------------------------5-------|---------3---------------3-------|
A||-3---3-----3---3-3---------------|-1---1-----1---1-1---------------|
E||---------------------------------|---------------------------------|

    S S E   S E   S S E   S Q         E   E   S E   S Q       Q
E||---------------------------------|---------------------------------|
B||-1-1-------------1-1---4~--------|---------------------------------|
G||---------0---------------0-------|---------------------------------|
D||---------------------------------|---------3---------------3-------|
A||-3---3-----3---3-3---------------|-1---1-----1---1-1---------------|
E||---------------------------------|---------------------------------|

    S S E   S E   S S E   S Q         E   E   S E   S Q       Q
E||---------------------------------|---------------------------------|
B||-1-1-------------1-1-------------|---------------------------------|
G||---------0-------------3~--------|---------------------------------|
D||-------------------------5-------|---------3---------------3-------|
A||-3---3-----3---3-3---------------|-1---1-----1---1-1---------------|
E||---------------------------------|---------------------------------|

    S S E   S E   S S E   S Q         E   E   S E   S Q       Q
E||---------------------------------|---------------------------------|
B||-1-1-------------1-1---4~--------|---------------------------------|
G||---------0---------------0-------|---------------------------------|
D||---------------------------------|---------3---------------3-------|
A||-3---3-----3---3-3---------------|-1---1-----1---1-1---------------|
E||---------------------------------|---------------------------------|

    S E.    E   E.    E.    E   E     S E.    E   E   E   E   S E.
E||---------------------------------|---------------------------------|
B||---------------------------------|-----------------0---1---2-3-----|
G||-------------------------0-------|---1-----2---3-------------------|
D||---2-----3---------4-------------|-----------------0---1---2-3-----|
A||-------------------0-----1-------|---2-----3---4-------------------|
E||---3-----4---3---------------3---|---------------------------------|

    E   S S S E   S E   E   E   E     E   E   S E   S E   E.    E.
E||-3-----3-3-1-----3---0-------8---|-----6---6-8-----10--------------|
B||-------------------------8-------|---------------------11----------|
G||*--------------------------------|---------------------------10~---|
D||*--------------------------------|-----------------8---------------|
A||-3---3-----3---3-3---------------|---------------------------------|
E||---------------------------------|-6---6-----6---6-----------------|

    E   E   S E   S E   E   E   E     E   E.    E   S H
E||---------------------0-------8---|-6~------------------------------|
B||-----8---8-------8-------8-------|---------------------------------|
G||-----------10--------------------|---------------------------------|
D||---------------------------------|---------------------------------|
A||---------------------------------|---------------------------------|
E||-8---8-----8---8-8---------------|-6---6-----6---6-6---------------|

    E   E   S E   S E   E   E   E     E   E   S E   S E   E.    E.
E||-----6---6-------6-------6---11--|-----9---9-11----13--------------|
B||-----------9---------8-----------|---------------------14----------|
G||---------------------------------|---------------------------13~---|
D||---------------------------------|---------------------------------|
A||-6---6-----6---6-6---------------|---------------------------------|
E||---------------------------------|-9---9-----9---9-9---------------|

    E   E   S E   S E   E   E   E     E   E.    E   S H
E||-----------------------------11--|-13~-------------15~-------------|
B||-----11-11-9-----11------11------|---------------------------------|
G||---------------------12----------|---------------------------------|
D||---------------------------------|-11--11----11-11-----------------|
A||---------------------------------|---------------------------------|
E||-11--11----11-11-11--------------|-----------------15--------------|

    S E.    Q       S E   S Q         Q       Q       Q       Q
E||---------------------------------|---------------------------------|
B||-1-1-------------1-1-------------|---------------------------------|
G||-0-0-------------0-0---3~--------|---------------------------------|
D||-----------------------3~--------|---------------------------------|
A||-3-------3-------3-------3-------|-1-------1-------1-------1-------|
E||---------------------------------|---------------------------------|

    S E.    Q       S E   S Q         Q       Q       Q       Q
E||---------------------------------|---------------------------------|
B||-1-1-------------1-1---4~--------|---------------------------------|
G||-0-0-------------0-0---3~--------|---------------------------------|
D||---------------------------------|---------------------------------|
A||-3-------3-------3-------3-------|-1-------1-------1-------1-------|
E||---------------------------------|---------------------------------|

    S E.    Q       S E   S Q         Q       Q       Q       Q
E||---------------------------------|---------------------------------|
B||-1-1-------------1-1-------------|---------------------------------|
G||-0-0-------------0-0---3~--------|---------------------------------|
D||-----------------------3~--------|---------------------------------|
A||-3-------3-------3-------3-------|-1-------1-------1-------1-------|
E||---------------------------------|---------------------------------|

    S E.    Q       S E   S Q         W                               x3 W
E||---------------------------------|---------------------------------||-3-
B||-1-1-------------1-1---4~--------|---------------------------------||-4-
G||-0-0-------------0-0---3~--------|--------------------------------*||-5-
D||---------------------------------|--------------------------------*||-5-
A||-3-------3-------3-------3-------|-1-------------------------------||-3-
E||---------------------------------|---------------------------------||---

Login or Register to remove this ad.