Elec Man (Mega Man) Guitar Tab

Submitted: Oct 13, 2014 by ltm_1988

0
Download | Listen
Game: Mega Man
Composer(s): Yoshihiro Sakaguchi, Manami Matsumae
Style: Arrangement, Fingerstyle
Series: Mega Man

AutoScroll: Slow | Medium | Fast
Elec Man
Mega Man
Manami Matsumae
ltm_1988
10/11/2014

     |-3-|   |-3-|   |-3-|   |-3-|
     E E E   E E E   E E E   E E E
E||---------------------------------|
B||---------------------------------|
G||----------------------------1-3--|
D||--------------------------4-3-2--|
A||--------------------------4-3-2--|
E||---------------------------------|

    E   E   E   E   E   E   E   E     E   E   E   E   E   E   S S S S
E||---------------------------------|-0----------------------11-7-4-2-|
B||-2-------4-----------2-----------|-0-----------4~------------------|
G||*2-------4-----------4-----------|-------------4-------------------|
D||*----4-------4-------4-------4---|-----4-------4-------4-----------|
A||-2-------2-------2-------2-------|-2-------2-------2-----------0---|
E||---------------------------------|-------------------------7-------|

    E   E   E   E   E   E   E   E     E   E   E   E   E   E   S S S S
E||-5-------------------------------|-0----------------------11-7-4-2-|
B||---------4-----------2-----------|-0-----------4~------------------|
G||---------4-----------4-----------|-------------4-------------------|
D||-----4-------4-------4-------4---|-----4-------4-------4-----------|
A||-0-------0-------0-------0-------|-0-------0-------0-------0-------|
E||---------------------------------|-----------------------------4---|

    E   E   E   E   E   E   E   E     E   E   E   E   E   E   E   E
E||-4-------------------------------|-0-------------------------------|
B||---------4-----------2-----------|-------------4-------------------|
G||---------------------1-----------|-1-----------1-----------6-------|
D||-----2---6-----------2-------2---|-----2-------2-------2---6-------|
A||-------------7-------------------|---------------------------------|
E||-4-------4-------4-------4-------|-4-------4-------4-------4---0---|

    E   E   E   E   E   E   E   E     E   E   E   E   E   E   E   E
E||---------------------------------|-----------------------------2---|
B||-0-------------------------------|-0-------------------------------|
G||-0-------------------------------|-------------3-------1-----------|
D||-----2-------2-------2-------2---|-4-----------4-------2---4---2---|
A||---------------------------------|-----7---------------------------|
E||-0-------0-------0-------0-------|-0-------0-------0-------0-------|

    E   E   E   E   E   E   E   E     E   E   E   E   E   E   S S S S
E||---------------------------------|-0----------------------11-7-4-2-|
B||---------4-----------2-----------|-0-----------4~------------------|
G||---------4-----------4-----------|-------------4-------------------|
D||-----4-------4-------4-------4---|-----4-------4-------4-----------|
A||-2-------2-------2-------2-------|-2-------2-------2-----------0---|
E||---------------------------------|-------------------------7-------|

    E   E   E   E   E   E   E   E     E   E   E   E   E   E   S S S S
E||-5-------------------------------|-0----------------------11-7-4-2-|
B||---------4-----------2-----------|-0-----------4~------------------|
G||---------4-----------4-----------|-------------4-------------------|
D||-----4-------4-------4-------4---|-----4-------4-------4-----------|
A||-0-------0-------0-------0-------|-0-------0-------0-------0-------|
E||---------------------------------|-----------------------------4---|

    E   E   E   E   E   E   E   E     E   E   E   E   E   E   E   E
E||-4-------------------------------|-0-------------------------------|
B||---------4-----------2-----------|-------------4-------------------|
G||---------------------1-----------|-1-----------1-----------6-------|
D||-----2---6-----------2-------2---|-----2-------2-------2---6-------|
A||-------------7-------------------|---------------------------------|
E||-4-------4-------4-------4-------|-4-------4-------4-------4---0---|

    E   E   E   E   E   E   E   E     E   E   E   E   E   E   E   E
E||---------------------------------|---------2-----------------------|
B||-0-------------------------------|---------------------------------|
G||-0-------------------------------|---------------------------------|
D||-----2-------2-------2-------2---|-----4-------2-------2-------2---|
A||---------------------------------|-----7---------------------------|
E||-0-------0-------0-------0-------|-0-------0-------0-------0-------|

    E   E   E   E   E   E   E   E     E   E   E   E   E   E   E   E
E||-2---2---2---2---2---2---2---2---|-0---0---0---0---0---0---0---0---|*
B||-0---0---0---0---0---0---0---0---|---------------------------------|
G||-----------------------------2---|-2---2---2---1---2---1---2---2---|
D||-----------------4---------------|-------------------------4---2---|
A||-2-----------2-------------------|---------------------------------|
E||---------------------------------|---------------------------------|

    E   E   E   E   E   E   E   E     E   E   E   E   E   E   E   E
E||-2---2---2---2---2---2---2---2---|-5---5---5---5---5---5---5---5---|
B||-0---0---0---0---0---0---0---0---|-2---2---2---2---2---2---2---2---|
G||-----------------------------2---|---------------------------------|
D||-4-----------1---4---------------|---------------------------------|
A||---------2-----------------------|---------------------------------|
E||---------------------------------|---------------------------------|

    E   E   E   E   E   E   E   E     E   E   E   E   E   E   E   E
E||-5---5---5---5---5---5---5---5---|-3---3---3---3---3---3---3---3---|
B||---------------------7-------5---|-------------1---1---1---1---1---|
G||-7---7---7---7---7---7---7---7---|-5---5---5---------------2-------|
D||-0-----------7-------------------|---------------------------------|
A||---------------------------------|---------------------------------|
E||---------------------------------|---------------------------------|

    E   E   E   E   E   E   E   E     S S S E   S E   S Q.          S x3 W
E||-1---1---1---1---1---1---1---1---|-7-7-7-7---7-7---7-7-------------||-2-
B||-------------1-----------3-------|-7-7-7-7---7-7---7-7-------------||-4-
G||-3---3---3---3---3---3---3---3---|--------------------------------*||-4-
D||---------------------------------|--------------------------------*||-4-
A||---------------------------------|---------------------------------||-2-
E||---------------------------------|---------------------------------||---

*Used Arpeggios in MIDI to bring out melody
Login or Register to remove this ad.