Ads

Cut Man (Mega Man) Guitar Tab

Submitted: Dec 02, 2014 by ltm_1988

5
Average: 5 (2 votes)
Download | Listen
Game: Mega Man
Composer(s): Yoshihiro Sakaguchi, Manami Matsumae
Style: Arrangement, Fingerstyle
Series: Mega Man

AutoScroll: Slow | Medium | Fast
Cut Man
Mega Man
Manami Matsumae
ltm_1988
11/30/2014

    E   E   S S S S S S S S E   E     E   E   S S S S S S S S E   E
E||-0---0---0---0-0---0-0-0-0---0---|-0---0---0-0-0-0-0-0-0-0-2---4---|
B||---------------------------------|---------------------------------|
G||---------------------------------|---------------------------------|
D||-------------------------2-------|-------------------------2-------|
A||---------2-2---2-----------------|---------2-2---2-----------------|
E||-0---0-----------0-0---0-----0---|-0---0-----------0-0---0-----0---|

    S S E   S E   S S E   S S S S S   S S E   S E   S S E   S E   E
E||-5-5-----------------------------|---------------------------------|
B||-------------------1---3---1---0-|---1-----------------------------|
G||*----------------2---------------|---------------------------------|
D||*--------2-2---2---------2-------|-----2---2-2---2---------2-------|
A||-0---0-----------0-0---0---------|-0---0-----------0-0---0---------|
E||-----------------------------0---|-----------------------------0---|

    S S E   S E   S S E   S S S S S   S S E   S E   S S E   S E   E
E||-5-5-----------------------------|-----0---------------------------|
B||-------------------1---3---1---0-|---1-----------------------------|
G||-----------------2---------------|---------------------------------|
D||---------2-2---2---------2-------|---------2-2---2---------2-------|
A||-0---0-----------0-0---0---------|-0---0-----------0-0---0---------|
E||-----------------------------0---|-----------------------------0---|

    E   E   S E   S S E   S S S S S   E   E   S E   S S E   S S S S S
E||-1---------------1-3---1---0-----|-0---------------0-1---0---------|
B||-------------------------------3-|---------------------------3---1-|
G||---------------------------------|---------------------------------|
D||---------------------------------|---------2-2---2---------2-------|
A||---------0-0---0---------0-------|-0---0-----------0-0---0---------|
E||-0---0-----------0-0---0-----0---|-----------------------------0---|

    E   E   S S S S S S S S E   E     E   E   S E   S S E   S E   E
E||---------------------------------|-0-------------------------------|
B||-4-----------0-------0---2---4---|---------------------------------|
G||---------------------------------|---------------------------------|
D||---------1-1---1---------1-------|-------------------------2-------|
A||---------------------------------|---------2-2---2-----------------|
E||-2---2-----------2-2---2-----2---|-0---0-----------0-0---0-----0---|

    S S E   S E   S S E   S S S S S   S S E   S E   S S E   S E   E
E||-5-5-----------------------------|---------------------------------|
B||-------------------1---3---1---0-|---1-----------------------------|
G||-----------------2---------------|---------------------------------|
D||---------2-2---2---------2-------|-----2---2-2---2---------2-------|
A||-0---0-----------0-0---0---------|-0---0-----------0-0---0---------|
E||-----------------------------0---|-----------------------------0---|

    S S E   S E   S S E   S S S S S   S S E   S E   S S E   S E   E
E||-5-5-----------------------------|-----0---------------------------|
B||-------------------1---3---1---0-|---1-----------------------------|
G||-----------------2---------------|---------------------------------|
D||---------2-2---2---------2-------|---------2-2---2---------2-------|
A||-0---0-----------0-0---0---------|-0---0-----------0-0---0---------|
E||-----------------------------0---|-----------------------------0---|

    E   E   S E   S S E   S S S S S   E   E   S E   S S E   S S S S S
E||-1---------------1-3---1---0-----|-0---------------0-1---0---------|
B||-------------------------------3-|---------------------------3---1-|
G||---------------------------------|---------------------------------|
D||---------------------------------|---------2-2---2---------2-------|
A||---------0-0---0---------0-------|-0---0-----------0-0---0---------|
E||-0---0-----------0-0---0-----0---|-----------------------------0---|

    E   E   S S S S S S S S E   E     E   E   S E   S Q.          S S
E||---------------------------------|---------------------------------|
B||-0-------------------------------|---------------------------------|
G||-------------2-------1-------1---|-2-------------------------------|
D||---------1-1---1---------4-------|---------2-2---2-3/-----------/18|
A||-------------------------6-------|-0---0-----------0-------------0-|
E||-2---2-----------2-2---2-----2---|---------------------------------|

    E   E   S E   S S S S S E   E     E   E   S E   S S E   S E   E
E||-5-------------------7-------5---|-3-------------------------------|
B||---------------------------------|---------------------------------|
G||-----------------0-0---0-0---0---|---------------------------------|
D||-3---3---3-3---3-----------------|---------------------------------|
A||---------------------------------|---------3-3---3---------3---3---|
E||---------------------------------|-1---1-----------1-1---1---------|

    E   E   S E   S S S S S E   E     E   E   S S S S S E   S E   E
E||-1-------------------3-------1---|-0---1---2---3-------------------|
B||---------------------------------|---------------------------------|
G||---------------------------------|---------------------------------|
D||---------0-0---------------------|---------------------------------|
A||---------------3-2-2---2-2---2---|---------3-3---3---------3---3---|
E||-1---1---------------------------|-1---1-----------1-1---1---------|

    E   E   S E   S S S S S E   E     E   E   S S S S S E   S E   E
E||-5-------------------7-----------|---------10--8-------------------|
B||-----------------------------10--|-8-------------------------------|
G||-----------------0-0---0-0---0---|---------------------------------|
D||-3---3---3-3---3-----------------|-------------------------7---7---|
A||---------------------------------|-8---8-----------0-0---0---------|
E||---------------------------------|---------8-8---8-----------------|

    E   E   S E   S S E   S E   E     E   E   S E   S S E   S E   E   x3 W
E||-5-----------------------7---5---|-----------------4---------------||-5-
B||---------------------------------|---------------------------------||-5-
G||---------------------------------|--------------------------------*||-5-
D||-3---3-----------4-4---4-0---0---|-------------------------2---2--*||-7-
A||---------3-3---3-----------------|---------7-7---7-----------------||-7-
E||---------------------------------|-0---0-----------0-0---0---------||-5-
Login or Register to remove this ad.