Caravan - Hope for Freedom (Mega Man Zero 4) Bass/Guitar Tab

Submitted: Jul 17, 2014 by Gabriel (Last updated: Jul 26, 2014)

5
Average: 5 (1 vote)
Download | Listen
Game: Mega Man Zero 4
Composer(s): Luna Umegaki
Style: 2 or more instruments, Transcription
Series: Mega Man

Click here for a video example.

AutoScroll: Slow | Medium | Fast
Check gp5 for all instruments

x Guitar x
     H.           E  S S    W                 
E||----------------------|-------------------|
B||----------------------|-------------------|
G||----------------------|-------------------|
D||--------------------1-|--1----------------|
A||--------------------1-|--1----------------|
E||----------------------|-------------------|


  S S S S S S S S S S S S S S S S    W                 
----------------------------------|-------------------|
----------------------------------|-------------------|
----------------------------------|-------------------|
--L-L-L-L-L-L-L-L-L-L-L-L-L---1-1-|--4----------------|
--L-L-L-L-L-L-L-L-L-L-L-L-L---1-1-|--4----------------|
----------------------------------|-------------------|


  S S S S S S S S S S S S S S S S    W                   H.           E  S S  
----------------------------------|-------------------|----------------------|
----------------------------------|-------------------|----------------------|
----------------------------------|-------------------|----------------------|
--L-L-L-L-L-L-L-L-L-L-L-L-L---4-4-|--3----------------|--L---------------3-3-|
--L-L-L-L-L-L-L-L-L-L-L-L-L---4-4-|--3----------------|--L---------------3-3-|
----------------------------------|-------------------|----------------------|


  W                   H.           E  S S    E  E  E  E  E  E  E  E   
-------------------|----------------------|--------------------------|
-------------------|----------------------|--------------------------|
-------------------|----------------------|--------------------------|
--2----------------|--L---------------2-2-|--1-----------------------|
--2----------------|--L---------------2-2-|--1-----------------------|
-------------------|----------------------|--------------------------|


  H.           E  E     E  E  E  E  E  E  E  E     H.           E  E   
---------------------|--------------------------|---------------------|
---------------------|--------------------------|---------------------|
---------------------|--------------------------|---------------------|
---------------------|--1-----------------------|---------------------|
------------------4--|--1-----------------------|---------------------|
------------------4--|--------------------------|---------------------|


  E.  E.  E  E.  E.  E     E.  E.  E  E.  E.  E     E.  E.  E  E.  E.  E   
------------------------|------------------------|------------------------|
-------------2---1------|------------------------|------------------------|
------3---1----------1--|------1---3--1----------|------------------------|
--1---------------------|--4--------------4---3--|--1---3---4--3---1------|
------------------------|------------------------|---------------------4--|
------------------------|------------------------|------------------------|


  E.  E.  E  H           E.  E.  E  E.  E.  E     E.  E.  E  E.  E.  E   
----------------------|------------------------|------------------------|
----------------------|-------------2---1------|---------------------1--|
----------------------|------3---1----------1--|------1---3--1---3------|
----------------------|--1---------------------|--4---------------------|
--3---4---3--2--------|------------------------|------------------------|
----------------------|------------------------|------------------------|


  E.  E.  E  E.  E.  E     Q.     S S H           H.           E  E   
------------------------|----------------------|---------------------|
--2---1--------------1--|---------1------------|---------------------|
----------3--1---3------|--3--------3-1--------|---------------------|
------------------------|----------------------|--4------------3--4--|
------------------------|----------------------|---------------------|
------------------------|----------------------|---------------------|


  Q    E  Q    E  E  E     Q.     H        E     H        Q    Q     
------------------------|---------------------|---------------------|
------------------------|---------------------|---------------------|
--1---------------------|---------------------|---------------------|
-------4--3----4--3--1--|---------1-----------|----------------1----|
------------------------|--4------------------|-----------4---------|
------------------------|---------------------|---------------------|


  H.           E  E     Q    E  Q    E  Q       W                 
---------------------|-----------------------|-------------------|
---------------------|-----------------------|-------------------|
---------------------|--1---------------1----|--3----------------|
--4------------3--4--|-------4--3----4-------|-------------------|
---------------------|-----------------------|-------------------|
---------------------|-----------------------|-------------------|


  W                   E  H.           E     H.           E  E   
-------------------|---------------------|---------------------|
--4----------------|---------------------|---------------------|
-------------------|---------------------|---------------------|
-------------------|--1------------------|---------------------|
-------------------|--1------------------|------------------4--|
-------------------|---------------------|------------------4--|


  E  H.           E     W                   E.  E.  E  E.  E.  E   
---------------------|-------------------|------------------------|
---------------------|-------------------|-------------2---1------|
---------------------|-------------------|------3---1----------1--|
--1------------------|-------------------|--1---------------------|
--1------------------|-------------------|------------------------|
---------------------|-------------------|------------------------|


  E.  E.  E  E.  E.  E     E.  E.  E  E.  E.  E     E.  E.  E  H         
------------------------|------------------------|----------------------|
------------------------|------------------------|----------------------|
------1---3--1----------|------------------------|----------------------|
--4--------------4---3--|--1---3---4--3---1------|----------------------|
------------------------|---------------------4--|--3---4---3--2--------|
------------------------|------------------------|----------------------|


  E.  E.  E  E.  E.  E     E.  E.  E  E.  E.  E     E.  E.  E  E.  E.  E   
------------------------|------------------------|------------------------|
-------------2---1------|---------------------1--|--2---1--------------1--|
------3---1----------1--|------1---3--1---3------|----------3--1---3------|
--1---------------------|--4---------------------|------------------------|
------------------------|------------------------|------------------------|
------------------------|------------------------|------------------------|


  Q.     S S H           H.           E  E     Q    E  Q    E  E  E   
----------------------|---------------------|------------------------|
---------1------------|---------------------|------------------------|
--3--------3-1--------|---------------------|--1---------------------|
----------------------|--4------------3--4--|-------4--3----4--3--1--|
----------------------|---------------------|------------------------|
----------------------|---------------------|------------------------|


  Q.     H        E     H        Q    Q       H.           E  E   
---------------------|---------------------|---------------------|
---------------------|---------------------|---------------------|
---------------------|---------------------|---------------------|
---------1-----------|----------------1----|--4------------3--4--|
--4------------------|-----------4---------|---------------------|
---------------------|---------------------|---------------------|


  Q    E  Q    E  Q       W                   H        Q    Q     
-----------------------|-------------------|---------------------|
-----------------------|-------------------|--4--------4----6----|
--1---------------1----|--3----------------|---------------------|
-------4--3----4-------|-------------------|---------------------|
-----------------------|-------------------|---------------------|
-----------------------|-------------------|---------------------|


  E.  E.  E  H           H        Q    Q       E.  E.  E  H         
----------------------|---------------------|----------------------|
--7---6---7--4--------|-----------6----7----|--9---7---9--6--------|
----------------------|---------------------|----------------------|
----------------------|---------------------|----------------------|
----------------------|---------------------|----------------------|
----------------------|---------------------|----------------------|


  H        E.  E.  E     W                   H        E.  E.  E   
----------------------|-------------------|----------------------|
-----------7---6---4--|--2----------------|-----------2---1---2--|
----------------------|-------------------|----------------------|
----------------------|-------------------|----------------------|
----------------------|-------------------|----------------------|
----------------------|-------------------|----------------------|


  W                   H        Q    Q       E.  E.  E  H         
-------------------|---------------------|----------------------|
-------------------|-----------4----6----|--7---6---7--4--------|
--3----------------|---------------------|----------------------|
-------------------|---------------------|----------------------|
-------------------|---------------------|----------------------|
-------------------|---------------------|----------------------|


  H        Q    Q       E.   E.  E  E.  E.  E     E.  E.  E  E.  E.  E   
---------------------|-------------------------|------------------------|
-----------6----7----|--9---11---9--7---9---7--|--6---7---6--4---6---4--|
---------------------|-------------------------|------------------------|
---------------------|-------------------------|------------------------|
---------------------|-------------------------|------------------------|
---------------------|-------------------------|------------------------|


  W                   H        E.  E.  E     W                 
-------------------|----------------------|-------------------|
--2----------------|-------------------2--|--4----------------|
-------------------|-----------1---3------|-------------------|
-------------------|----------------------|-------------------|
-------------------|----------------------|-------------------|
-------------------|----------------------|-------------------|


  W                  
-------------------||
--3----------------||
-------------------||
-------------------||
-------------------||
-------------------||




x Bass x
     H.           E  S S    E  S S E  S S E  S S E  S S  
G||----------------------|------------------------------|
D||----------------------|------------------------------|
A||----------------------|------------------------------|
E||----------------------|------------------------------|
B||------------------4-4-|--4--4-4-4--4-4-4--4-4-4--4-4-|


  E  S S E  S S E  S S E  S S    E  S S E  S S E  S S E  S S  
------------------------------|------------------------------|
------------------------------|------------------------------|
------------------------------|------------------------------|
------------------------------|--2--2-2-2--2-2-2--2-2-2--2-2-|
--4--4-4-4--4-4-4--4-4-4--4-4-|------------------------------|


  E  S S E  S S E  S S E  S S    E  S S E  S S E  S S E  S S  
------------------------------|------------------------------|
------------------------------|------------------------------|
------------------------------|------------------------------|
--2--2-2-2--2-2-2--2-2-2--2-2-|--1--1-1-1--1-1-1--1-1-1--1-1-|
------------------------------|------------------------------|


  E  S S E  S S E  S S E  S S    E  S S E  S S E  S S E  S S  
------------------------------|------------------------------|
------------------------------|------------------------------|
------------------------------|------------------------------|
--1--1-1-1--1-1-1--1-1-1--1-1-|--0--0-0-0--0-0-0--0-0-0--0-0-|
------------------------------|------------------------------|


  E  S S E  S S E  S S E  S S    E  S S E  S S E  S S E  S S  
------------------------------|------------------------------|
------------------------------|------------------------------|
------------------------------|------------------------------|
--0--0-0-0--0-0-0--0-0-0--0-0-|------------------------------|
------------------------------|--4--4-4-4--4-4-4--4-4-4--4-4-|


  E  S S E  S S E  S S E  S S    E  S S E  S S E  S S E  S S  
------------------------------|------------------------------|
------------------------------|------------------------------|
------------------------------|------------------------------|
------------------------------|------------------------------|
--4--4-4-4--4-4-2--2-2-2--2-2-|--4--4-4-4--4-4-4--4-4-4--4-4-|


  E  S S E  S S E  S S E  S S    E  S S E  S S E  S S E  S S  
------------------------------|------------------------------|
------------------------------|------------------------------|
------------------------------|------------------------------|
------------------------------|------------------------------|
--4--4-4-4--4-4-2--2-2-2--2-2-|--4--4-4-4--4-4-4--4-4-4--4-4-|


  E  S S E  S S E  S S E  S S    E  S S E  S S E  S S E  S S  
------------------------------|------------------------------|
------------------------------|------------------------------|
------------------------------|------------------------------|
------------------------------|------------------------------|
--4--4-4-4--4-4-2--2-2-2--2-2-|--4--4-4-4--4-4-4--4-4-4--4-4-|


  E  S S E  S S E  S S E  S S    E  S S E  S S E  S S E  S S  
------------------------------|------------------------------|
------------------------------|------------------------------|
------------------------------|------------------------------|
------------------------------|------------------------------|
--4--4-4-4--4-4-2--2-2-2--2-2-|--4--4-4-4--4-4-4--4-4-4--4-4-|


  E  S S E  S S E  S S E  S S    E  S S E  S S E  S S E  S S  
------------------------------|------------------------------|
------------------------------|------------------------------|
------------------------------|------------------------------|
------------------------------|------------------------------|
--4--4-4-4--4-4-2--2-2-2--2-2-|--4--4-4-4--4-4-4--4-4-4--4-4-|


  E  S S E  S S E  S S E  S S    E  S S E  S S E  S S E  S S  
------------------------------|------------------------------|
------------------------------|------------------------------|
------------------------------|------------------------------|
------------------------------|------------------------------|
--4--4-4-4--4-4-2--2-2-2--2-2-|--1--1-1-1--1-1-1--1-1-1--1-1-|


  E  S S E  S S E  S S E  S S    E  S S E  S S E  S S E  S S  
------------------------------|------------------------------|
------------------------------|------------------------------|
------------------------------|------------------------------|
------------------------------|------------------------------|
--2--2-2-2--2-2-2--2-2-2--2-2-|--4--4-4-4--4-4-4--4-4-4--4-4-|


  E  S S E  S S E  S S E  S S    E  S S E  S S E  S S E  S S  
------------------------------|------------------------------|
------------------------------|------------------------------|
------------------------------|------------------------------|
------------------------------|------------------------------|
--4--4-4-4--4-4-2--2-2-2--2-2-|--1--1-1-1--1-1-1--1-1-1--1-1-|


  E  S S E  S S E  S S E  S S    E  S S E  S S E  S S E  S S  
------------------------------|------------------------------|
------------------------------|------------------------------|
------------------------------|------------------------------|
------------------------------|------------------------------|
--2--2-2-2--2-2-2--2-2-2--2-2-|--4--4-4-4--4-4-4--4-4-4--4-4-|


  E  S S E  S S E  S S E  S S    E  S S E  S S E  S S E  S S  
------------------------------|------------------------------|
------------------------------|------------------------------|
------------------------------|------------------------------|
------------------------------|------------------------------|
--4--4-4-4--4-4-4--4-4-4--4-4-|--4--4-4-4--4-4-4--4-4-4--4-4-|


  E  S S E  S S E  S S E  S S    E  S S E  S S E  S S E  S S  
------------------------------|------------------------------|
------------------------------|------------------------------|
------------------------------|------------------------------|
------------------------------|------------------------------|
--4--4-4-4--4-4-2--2-2-2--2-2-|--4--4-4-4--4-4-4--4-4-4--4-4-|


  E  S S E  S S E  S S E  S S    E  S S E  S S E  S S E  S S  
------------------------------|------------------------------|
------------------------------|------------------------------|
------------------------------|------------------------------|
------------------------------|------------------------------|
--4--4-4-4--4-4-2--2-2-2--2-2-|--4--4-4-4--4-4-4--4-4-4--4-4-|


  E  S S E  S S E  S S E  S S    E  S S E  S S E  S S E  S S  
------------------------------|------------------------------|
------------------------------|------------------------------|
------------------------------|------------------------------|
------------------------------|------------------------------|
--4--4-4-4--4-4-2--2-2-2--2-2-|--4--4-4-4--4-4-4--4-4-4--4-4-|


  E  S S E  S S E  S S E  S S    E  S S E  S S E  S S E  S S  
------------------------------|------------------------------|
------------------------------|------------------------------|
------------------------------|------------------------------|
------------------------------|------------------------------|
--4--4-4-4--4-4-2--2-2-2--2-2-|--4--4-4-4--4-4-4--4-4-4--4-4-|


  E  S S E  S S E  S S E  S S    E  S S E  S S E  S S E  S S  
------------------------------|------------------------------|
------------------------------|------------------------------|
------------------------------|------------------------------|
------------------------------|------------------------------|
--4--4-4-4--4-4-2--2-2-2--2-2-|--4--4-4-4--4-4-4--4-4-4--4-4-|


  E  S S E  S S E  S S E  S S    E  S S E  S S E  S S E  S S  
------------------------------|------------------------------|
------------------------------|------------------------------|
------------------------------|------------------------------|
------------------------------|------------------------------|
--4--4-4-4--4-4-2--2-2-2--2-2-|--1--1-1-1--1-1-1--1-1-1--1-1-|


  E  S S E  S S E  S S E  S S    E  S S E  S S E  S S E  S S  
------------------------------|------------------------------|
------------------------------|------------------------------|
------------------------------|------------------------------|
------------------------------|------------------------------|
--2--2-2-2--2-2-2--2-2-2--2-2-|--4--4-4-4--4-4-4--4-4-4--4-4-|


  E  S S E  S S E  S S E  S S    E  S S E  S S E  S S E  S S  
------------------------------|------------------------------|
------------------------------|------------------------------|
------------------------------|------------------------------|
------------------------------|------------------------------|
--4--4-4-4--4-4-2--2-2-2--2-2-|--1--1-1-1--1-1-1--1-1-1--1-1-|


  E  S S E  S S E  S S E  S S    E  S S E  S S E  S S E  S S  
------------------------------|------------------------------|
------------------------------|------------------------------|
------------------------------|------------------------------|
------------------------------|------------------------------|
--2--2-2-2--2-2-2--2-2-2--2-2-|--4--4-4-4--4-4-4--4-4-4--4-4-|


  E  S S E  S S E  S S E  S S    E  S S E  S S E  S S E  S S  
------------------------------|------------------------------|
------------------------------|------------------------------|
------------------------------|--2--2-2-2--2-2-2--2-2-2--2-2-|
------------------------------|------------------------------|
--4--4-4-4--4-4-4--4-4-4--4-4-|------------------------------|


  E  S S E  S S E  S S E  S S    E  S S E  S S E  S S E  S S  
------------------------------|------------------------------|
------------------------------|------------------------------|
--2--2-2-2--2-2-2--2-2-2--2-2-|--4--4-4-4--4-4-4--4-4-4--4-4-|
------------------------------|------------------------------|
------------------------------|------------------------------|


  E  S S E  S S E  S S E  S S    E  S S E  S S E  S S E  S S  
------------------------------|------------------------------|
------------------------------|------------------------------|
--4--4-4-4--4-4-4--4-4-4--4-4-|--1--1-1-1--1-1-1--1-1-1--1-1-|
------------------------------|------------------------------|
------------------------------|------------------------------|


  E  S S E  S S E  S S E  S S    E  S S E  S S E  S S E  S S  
------------------------------|------------------------------|
------------------------------|--1--1-1-1--1-1-1--1-1-1--1-1-|
--1--1-1-1--1-1-1--1-1-1--1-1-|------------------------------|
------------------------------|------------------------------|
------------------------------|------------------------------|


  E  S S E  S S E  S S E  S S    E  S S E  S S E  S S E  S S  
------------------------------|------------------------------|
------------------------------|------------------------------|
--4--4-4-4--4-4-4--4-4-4--4-4-|--2--2-2-2--2-2-2--2-2-2--2-2-|
------------------------------|------------------------------|
------------------------------|------------------------------|


  E  S S E  S S E  S S E  S S    E  S S E  S S E  S S E  S S  
------------------------------|------------------------------|
------------------------------|------------------------------|
--2--2-2-2--2-2-2--2-2-2--2-2-|--4--4-4-4--4-4-4--4-4-4--4-4-|
------------------------------|------------------------------|
------------------------------|------------------------------|


  E  S S E  S S E  S S E  S S    E  S S E  S S E  S S E  S S  
------------------------------|------------------------------|
------------------------------|------------------------------|
--4--4-4-4--4-4-4--4-4-4--4-4-|--1--1-1-1--1-1-1--1-1-1--1-1-|
------------------------------|------------------------------|
------------------------------|------------------------------|


  E  S S E  S S E  S S E  S S    E  S S E  S S E  S S E  S S  
------------------------------|------------------------------|
------------------------------|--1--1-1-1--1-1-1--1-1-1--1-1-|
--1--1-1-1--1-1-1--1-1-1--1-1-|------------------------------|
------------------------------|------------------------------|
------------------------------|------------------------------|


  E  S S E  S S E  S S E  S S   
------------------------------||
--0--0-0-0--0-0-0--0-0-0--0-0-||
------------------------------||
------------------------------||
------------------------------||
Login or Register to remove this ad.