Volcano (Mega Man Zero 3) Guitar Tab

Submitted: May 06, 2012 by LynyrdSkynyrd4

0
Download | Listen
Game: Mega Man Zero 3
Composer(s): Luna Umegaki, Ippo Yamada, Tsutomu Kurihara
Style: Transcription
Series: Mega Man

This song is also called Blazin' Flizard Stage

AutoScroll: Slow | Medium | Fast
  h - hammer on
  p - pull off
  . - palm mute


e|-------------------------------------------------------------
B|-------------------------------------------------------------
G|-------------------------------------------------------------
D|-------------------------------------------------------------
A|-2---0---2--------2---0---2--------2---0---2--------2---0---5
D|-2---0---2--------2---0---2--------2---0---2--------2---0---5

  -------------------------        -----------
  -------------------------        -----------
  -------------------------        -----------
  ------------------------- x3     -----------
  -2---0---2---2-2-2-2--2-2        -2---0---5-
  -2---0---2---2-2-2-2--2-2        -2---0---5-
               . . . .  . .
  -------------------------        -----------
  -------------------------        -----------
  -------------------------        -----------
  ------------------------- x3     -----------
  -2---0---2---2-2-2-2--2-2        -2---0---5-
  -2---0---2---2-2-2-2--2-2        -2---0---5-
               . . . .  . .
  

  --------------------------------------------------------------
  --------8-----11--10--8--10--8--7----8p7------7---------------
  -/7--9-----9-----------------------------9------9p7---9-------
  ---------------------------------------------------------7pb9r Pre bend 7 up to 9 and release
  --------------------------------------------------------------
  --------------------------------------------------------------

  --------------------------------7-------7h10----8p7------7---
  --------8-----11--10--8--10--8-------10-------------10------8
  -/7--9-----9-------------------------------------------------
  -------------------------------------------------------------
  -------------------------------------------------------------
  -------------------------------------------------------------

  --------------------------------------------------------------
  --------8-----11--10--8--10--8--7----8p7------7---------------
  -/7--9-----9-----------------------------9------9p7---9-------
  ---------------------------------------------------------7pb9r
  --------------------------------------------------------------
  --------------------------------------------------------------

  --------------------------------7-------7-9pb10r=(9)b10 Pre bend 9 up to 10 then
  --------8-----11--10--8--10--8-------10---------------- release and bend back up
  -/7--9-----9-------------------------------------------
  -------------------------------------------------------
  -------------------------------------------------------
  -------------------------------------------------------

  -------------------------------
  -------------------------------
  -------------------------------
  -7---5---10---9---7---9---5---7
  -------------------------------
  -------------------------------

  --------------------7------7
  -8--7--8-----8--10-----10---
  ----------9-----------------
  ----------------------------
  ----------------------------
  ----------------------------

  -------------------------------
  -------------------------------
  -------------------------------
  -7---5---10---9---7---9---5---7
  -------------------------------
  -------------------------------

  --------------------7--10--7
  -8--7--8-----8--10----------
  ----------9-----------------
  ----------------------------
  ----------------------------
  ----------------------------
  
  -8-10-12-----10-7-8-----12-14-15-----14-15-17-----19-20-22
  ----------------------------------------------------------
  ----------------------------------------------------------
  ----------------------------------------------------------
  ----------------------------------------------------------
  ----------------------------------------------------------
Login or Register to remove this ad.