Ads

Cannon Ball (Mythos) (Mega Man Zero 3) Guitar Tab

Submitted: Nov 20, 2011 by LynyrdSkynyrd4

5
Average: 5 (1 vote)
Download | Listen
Game: Mega Man Zero 3
Composer(s): Luna Umegaki, Ippo Yamada, Tsutomu Kurihara
Style: Alternate picking, Transcription
Series: Mega Man

AutoScroll: Slow | Medium | Fast
e|----------------------------------------------
B|----------------------------------------------
G|----------------------------------------------
D|-2---5---7----2---5---7----2---5---7---9---8-- x3
A|-0---3---5----0---3---5----0---3---5---7---6--
E|----------------------------------------------

  ------------------------------
  ------------------------------
  ------------------------------
  -2---5---7----2---5---7----2--
  -0---3---5----0---3---5----0--
  ------------------------------

  -12-13-----------12--------------------------
  -------15-----------15-13-15-13-12-----------
  -----------------------------------14-12-11~-
  --------------------------------------------- x2
  ---------------------------------------------
  ---------------------------------------------

  ------------------------------------------
  --------13----13-12-13-15-13-12-----------
  -----14-------------------------14--12/14-
  -/15-------------------------------------- 
  ------------------------------------------
  ------------------------------------------

  --------------------------------------16-------
  --------13----13-15-13-12---------15------17~--
  -----14-------------------14--13---------------
  -/15-------------------------------------------
  -----------------------------------------------
  -----------------------------------------------

  ----------------15-------------------------------    
  -/17---13-15-17----17~-----17-18-15-17-13--15--17  
  -------------------------------------------------
  ------------------------------------------------- 
  -------------------------------------------------                                                                                       
  -------------------------------------------------    
 
  ----------------15-------------------------------    
  -/17---13-15-17----17------17-18-15-17-13--15--12   
  -------------------------------------------------
  ------------------------------------------------- 
  -------------------------------------------------                                                                                        
  -------------------------------------------------

  -----------------------------------------------------------  
  --------------------------------------15-17----15----------   
  -10-9-10/14~-------12-14-12/16~-------------17----17-16-14-
  ----------------------------------------------------------- 
  -----------------------------------------------------------                                                                                     
  -----------------------------------------------------------

  ----------------------------------------------
  ----------------------------------------------
  ----------------------------------------------
  -2---5---7----2---5---7----2---5---7---9---8-- x3
  -0---3---5----0---3---5----0---3---5---7---6--
  ----------------------------------------------

  ------------------------------
  ------------------------------
  ------------------------------
  -2---5---7----2---5---7----2--
  -0---3---5----0---3---5----0--
  ------------------------------

  (SOLO)
  -b15------15p12---------------12-------------------------------------------------
  ----------------15p13h15~--------15p3---------------------------13------15---17~-
  --------------------------------------14p12------12----14-12-14----14------------
  ---------------------------------------------14-----14---------------------------
  ---------------------------------------------------------------------------------
  ---------------------------------------------------------------------------------

  -17---17-19-20-22-20-19------------------15h17p15------------------------------------
  ------------------------20-17~-----15h17----------17p15h17p15----15------------------
  --------------------------------------------------------------17----17p16p14h16---20-
  -------------------------------------------------------------------------------------
  -------------------------------------------------------------------------------------
  -------------------------------------------------------------------------------------

   
    Here are the notes for this part, figure out the pattern yourself ;)
  
  -12h15h17-t20p17p15p12h15h17-t20---------
  -----------------------------------------
  -----------------------------------------
  -----------------------------------------
  -----------------------------------------
  -----------------------------------------

  
  
  -22--20-22-24-22-20-22-20-19----20--19-20-22-20-19----19-20-22-24~-
  ---------------------------------------------------22--------------
  -------------------------------------------------------------------
  -------------------------------------------------------------------
  -------------------------------------------------------------------
  -------------------------------------------------------------------

  -12h13p12----12---------------------------------------------------
  ----------15----15p13h15p13p12h13p12----12------------------------
  -------------------------------------14----14p12h14-----16p14p13--
  ------------------------------------------------------------------
  ------------------------------------------------------------------
  ------------------------------------------------------------------

  -13p12------12h13p12------12h13p12------12h13p12------12h13p12------12h13h15
  ------13--13--------13--13--------13--13--------13--13--------13--13--------
  --------14------------14------------14------------14------------14----------                                                                                                                                                                                                                                                                                            
  ----------------------------------------------------------------------------
  ----------------------------------------------------------------------------                                                   
  ----------------------------------------------------------------------------

  15p13---------13h15p13---------13h15p13---------13h15p13---------13h15p13--------13h15h17  
  -----15p12h15---------15p12h15---------15p12h15---------15p12h15---------15p12h15--------                                                  
  -----------------------------------------------------------------------------------------                                                                                                                        
  -----------------------------------------------------------------------------------------  
  -----------------------------------------------------------------------------------------                                                    
  -----------------------------------------------------------------------------------------

  -13p12------12h13p12------12h13p12------12h13p12------12h13p12------12h13h15
  ------13--13--------13--13--------13--13--------13--13--------13--13--------
  --------14------------14------------14------------14------------14----------                                                                                                                                                                                                                                                                                            
  ---------------------------------------------------------------------------- 
  ----------------------------------------------------------------------------                                                   
  ----------------------------------------------------------------------------                                                              
                                                             
  15p13---------13h15p13----------13h16p13--------13h16p13--------16h17h19p17p16h17~  
  -----15p12h15---------15p12h15----------17p13h17--------17p13h17------------------                                                  
  ----------------------------------------------------------------------------------                                                                                                                        
  ----------------------------------------------------------------------------------  
  ----------------------------------------------------------------------------------                                                    
  ----------------------------------------------------------------------------------

  ----------------------------------------------
  ----------------------------------------------
  ----------------------------------------------
  -2---5---7----2---5---7----2---5---7---9---8-- x3
  -0---3---5----0---3---5----0---3---5---7---6--
  ----------------------------------------------

  ------------------------------
  ------------------------------
  ------------------------------
  -2---5---7----2---5---7----2--
  -0---3---5----0---3---5----0--
  ------------------------------

  -12-13-----------12--------------------------
  -------15-----------15-13-15-13-12-----------
  -----------------------------------14-12-11~-
  --------------------------------------------- x2
  ---------------------------------------------
  ---------------------------------------------

  ------------------------------------------
  --------13----13-12-13-15-13-12-----------
  -----14-------------------------14--12/14-
  -/15-------------------------------------- 
  ------------------------------------------
  ------------------------------------------

  --------------------------------------16-------
  --------13----13-15-13-12---------15------17~--
  -----14-------------------14--13---------------
  -/15-------------------------------------------
  -----------------------------------------------
  -----------------------------------------------

  ----------------15-------------------------------    
  -/17---13-15-17----17~-----17-18-15-17-13--15--17  
  -------------------------------------------------
  ------------------------------------------------- 
  -------------------------------------------------                                                                                       
  -------------------------------------------------    
 
  ----------------15-------------------------------    
  -/17---13-15-17----17------17-18-15-17-13--15--12   
  -------------------------------------------------
  ------------------------------------------------- 
  -------------------------------------------------                                                                                        
  -------------------------------------------------

  -----------------------------------------------------------  
  --------------------------------------15-17----15----------   
  -10-9-10/14~-------12-14-12/16~-------------17----17-16-14-
  ----------------------------------------------------------- 
  -----------------------------------------------------------                                                                                     
  -----------------------------------------------------------

  ----------------------------------------------
  ----------------------------------------------
  ----------------------------------------------
  -2---5---7----2---5---7----2---5---7---9---8-- x3
  -0---3---5----0---3---5----0---3---5---7---6--
  ----------------------------------------------

  ------------------------------
  ------------------------------
  ------------------------------
  -2---5---7----2---5---7----2--
  -0---3---5----0---3---5----0--
  ------------------------------

                                                          
                                                                                 
                                                                                
                                                                                       
                                                                                 
                                                                               
Login or Register to remove this ad.