Ads

Break Out (Mega Man Zero 3) Guitar Tab

Submitted: May 31, 2014 by gtamaniak (Last updated: Jul 16, 2014)

3
Average: 3 (1 vote)
Download | Listen
Game: Mega Man Zero 3
Composer(s): Luna Umegaki, Ippo Yamada, Tsutomu Kurihara
Style: Transcription
Series: Mega Man

AutoScroll: Slow | Medium | Fast
Mega Man Zero 3 Intro Stage

Drop-D Tuning

Intro

e|------------------------------------------------------------------------------------|
B|------------------------------------------------------------------------------------|
G|----------------------------------------------------------2----4---------------2----| X2
D|-0-0-0-0-3--0-9--0-7----------------5----7-----------5--------------------2-------5-|
A|-----------------------4-4-4-4-7--4----4-----3-3-3-3----3----3----3-3-3-3---3-------|
D|------------------------------------------------------------------------------------|

Main Theme
e|------------------------------------------------------------------------|
B|------------------------------------------------------------13----------|
G|---10--10-9-10-12-10-9-7-----10-9----12-10---------14-12--------14-12---|
D|--------------------------8-------10---------12-------------------------|
A|------------------------------------------------------------------------|
D|------------------------------------------------------------------------|

e|--------------------------------------------------------|
B|-----------------10-11-10-------------------------------|
G|--10--10-9-10-12-----------10---9---7----9p7p5----------|
D|--------------------------------------------------------|
A|--------------------------------------------------------|
D|--------------------------------------------------------|

e|--------------------------------------------------------|
B|------6-5-3------(3)------------------------------------|
G|-3----------5-2-----------------------------------------|
D|--------------------------------------------------------|
A|--------------------------------------------------------|
D|----------------------0-3-5-5/6\5p3----0-3-5-5/6\5p3----|

e|-6------8-----------------------|
B|----6-5------10tr13-------------|
G|--------------------------------|
D|--------------------------------|
A|--------------------------------|
D|--------------------------------|

e|----------------------------------------------------------|
B|----------------------------------------------------------|
G|-7~-12-10-9-7p5-7~~--7--14-12-10p9-10-12~-15-14-----------|
D|-------------------------------------------------------12-|
A|----------------------------------------------------------|
D|----------------------------------------------------------|

p - pull off
/ - slide up
\ - slide down
tr - trill
Login or Register to remove this ad.

1 comment on Break Out

Comment If It Needs A Bit Of

Comment If It Needs A Bit Of Improving