Ads

Vile's Theme (Mega Man X8) Guitar Tab

Submitted: Jun 02, 2013 by ChelseaRare

4
Average: 4 (2 votes)
Download | Listen
Game: Mega Man X8
Composer(s): Yuko Komiyama, Shinya Okada, Naoto Tanaka
Style: 2 or more instruments, Transcription, Tremolo
Series: Mega Man

AutoScroll: Slow | Medium | Fast
Mega Man X8
Vile's Theme
Composed by Yuko Komiyama, Naoto Tanaka, Shinya Okada
Tabbed by Chelsea Intal

All guitars standard tuning - EADGBe
Bass standard tuning - EADG


Guitar 1
     tr          tr             tr          tr           
     H           H              H           H            
E||--------------------------|--------------6(7)--------|
B||--------------6(7)--------|--------------------------|
G||--------------------------|--8(9)--------------------|
D||--8(9)--------------------|--------------------------|
A||--------------------------|--------------------------|
E||--------------------------|--------------------------|


  tr          tr             tr                                       
  H           H              W                      W                 
--------------------------|----------------------|-------------------|
--------------6(7)--------|----------------------|-------------------|
--------------------------|--8(9)----------------|-------------------|
--8(9)--------------------|----------------------|-------------------|
--------------------------|----------------------|-------------------|
--------------------------|----------------------|-------------------|


  W                   W                   W                   W                 
-------------------|-------------------|-------------------|-------------------|
-------------------|-------------------|-------------------|-------------------|
-------------------|-------------------|-------------------|-------------------|
-------------------|-------------------|-------------------|-------------------|
-------------------|-------------------|-------------------|-------------------|
-------------------|-------------------|-------------------|-------------------|


  W                   W                   H         E.   E.   E   
-------------------|-------------------|-------------------------|
-------------------|-------------------|-----------19---18---16--|
-------------------|-------------------|-------------------------|
-------------------|-------------------|-------------------------|
-------------------|-------------------|-------------------------|
-------------------|-------------------|-------------------------|


  Q     E   H         E     Q     E   Q.      E   E      H         H         
-------------------------|---------------------------|----------------------|
--L----------------------|-----------------------18--|--19--------18--------|
-----------20------------|-------18--20------20------|----------------------|
-------20------------20--|--L------------------------|----------------------|
-------------------------|---------------------------|----------------------|
-------------------------|---------------------------|----------------------|


   Q.      E  E   Q.         H         H            H.            E   E   
-------------------------|----------------------|------------------------|
-------------------------|----------------------|------------------------|
--18------18-----20------|----------------------|------------------------|
-------------------------|--18--------18--------|------------------------|
-------------------------|----------------------|--21------------20--21--|
-------------------------|----------------------|------------------------|


   H         Q.     E      Q.     E   E.   E.   E     E  H.           E   
-----------------------|---------------------------|---------------------|
-----------------------|---------------------------|---------------------|
-----------------------|---------------------------|---------------------|
--18-------------------|---------------------------|---------------------|
------------20------L--|--20------L--20---20---20--|--L------------------|
-----------------------|---------------------------|---------------------|


  W                   W                   W                   W                 
-------------------|-------------------|-------------------|-------------------|
-------------------|-------------------|-------------------|-------------------|
-------------------|-------------------|-------------------|-------------------|
-------------------|-------------------|-------------------|-------------------|
-------------------|-------------------|-------------------|-------------------|
-------------------|-------------------|-------------------|-------------------|


  W                   W                   Q.      E  E   E  E   E   
-------------------|-------------------|-----------------------13--|
-------------------|-------------------|----------------14---------|
-------------------|-------------------|---------15----------------|
-------------------|-------------------|---------------------------|
-------------------|-------------------|---------------------------|
-------------------|-------------------|---------------------------|


  W                   H         Q     E   E     W                 
--L----------------|--L--------14----16--13--|--L----------------|
-------------------|-------------------------|-------------------|
-------------------|-------------------------|-------------------|
-------------------|-------------------------|-------------------|
-------------------|-------------------------|-------------------|
-------------------|-------------------------|-------------------|


  H         H            W                   H         H         
--L------------------|--13----------------|--L--------14--------|
-----------16--------|--------------------|---------------------|
---------------------|--------------------|---------------------|
---------------------|--------------------|---------------------|
---------------------|--------------------|---------------------|
---------------------|--------------------|---------------------|


   W                   Q    H.             
--13----------------|--L-----------------||
--------------------|--------------------||
--------------------|--------------------||
--------------------|--------------------||
--------------------|--------------------||
--------------------|--------------------||


Guitar 2
                                     E  E  E  E  E  E  E  E   
E||-------|-------|-------|-------|--------------------------|
B||-------|-------|-------|-------|--------------------------|
G||-------|-------|-------|-------|--------------------------|
D||-------|-------|-------|-------|--------------------------|
A||-------|-------|-------|-------|--8--------6--7--8--------|
E||-------|-------|-------|-------|-----6--9-----------6--9--|


  E  E  E  E  E  E  E  E     E  E  E  E  E  E  E  E     E  E  E  Q    Q.      
--------------------------|--------------------------|-----------------------|
--------------------------|--------------------------|-----------------------|
--------------------------|--------------------------|-----------------------|
--------------------------|--------------------6-----|--6--8--6--------------|
--6--7--8--------6-----6--|--8--------6--7--8-----8--|-----------8----6------|
-----------6--9-----9-----|-----6--9-----------------|-----------------------|


  E  E  E  E  E  E  E  E     E  E  E  E  E  E  E  E   
--------------------------|--------------------------|
--------------------------|--------------------------|
--------------------------|--------------------------|
--------------------------|--------------------------|
--8--------6--7--8--------|--6--7--8--------6-----6--|
-----6--9-----------6--9--|-----------6--9-----9-----|


  E  E  E  E  E  E  E  E     E  Q    E  E.  E.  E     E  E  E  E  E  E  E  E   
--------------------------|------------------------|--------------------------|
--------------------------|-------------7---6------|--------------------------|
--------------------------|-------------6---5---8--|--L-----------------------|
--------------------6-----|--6--8----6----------8--|--L--------6--7--8--------|
--8--------6--7--8-----8--|------------------------|-----6--9-----------6--9--|
-----6--9-----------------|------------------------|--------------------------|


  E  E  E  E  E  E  E  E     E  E  E  E  E  E  E  E     E  Q    E  E  Q.      
--------------------------|--------------------------|-----------------------|
--------------------------|--------------------------|-----------------------|
--------------------------|--------------------------|----------6-----8------|
--6--7--8--------6-----6--|--8--------6--7--8--7--8--|-----8-----------------|
-----------6--9-----9-----|-----6--9-----------------|-----------------------|
--------------------------|--------------------------|--9--------------------|


  E  E  E  E  E  E  E  E     E  E  E  E  E  E  E  E   
--------------------------|--------------------------|
--------------------------|--------------------------|
--------------------------|--------------------------|
--8--------6--7--8--------|--6--7--8--------6-----6--|
-----6--9-----------6--9--|-----------6--9-----9-----|
--------------------------|--------------------------|


  E  E  E  E  E  E  E  E     E  E  E  E  H           E  E  E  E  E  E  E  E   
--------------------------|-----------------------|--------------------------|
--------------------------|-----------------------|--------------------------|
--------------------------|-----------------------|--------------------------|
--8--------6--7--8--------|--6--7--8-----8--------|--------------------------|
-----6--9-----------6--9--|-----------8--8--------|-----------6--7--8--------|
--------------------------|--------------6--------|--L--6--9-----------6--9--|


  E  E  E  E  E  E  E  E     E  E  E  E  E  E  E  E     E  E  E  E  E  Q.      
--------------------------|--------------------------|------------------------|
--------------------------|--------------------------|------------------------|
--------------------------|--------------------------|------------------------|
--------------------------|--------------------6-----|--6--8--6---------------|
--6--7--8--------6-----6--|--8--------6--7--8-----8--|-----------8-----6------|
-----------6--9-----9-----|-----6--9-----------------|------------------------|


  E  E  E  E  E  E  E  E     E  E  E  E  E  E  E  E   
--------------------------|--------------------------|
--------------------------|--------------------------|
--------------------------|--------------------------|
--------------------------|--------------------------|
--8--------6--7--8--------|--6--7--8--------6-----6--|
-----6--9-----------6--9--|-----------6--9-----9-----|


  E  E  E  E  E  E  E  E     E  E  E  E  E  E  E  E     W                 
--------------------------|--------------------------|-------------------|
--------------------------|-----------------------6--|--L----------------|
--------------------------|--------------------------|--L----------------|
--------------------6-----|--6-----6--8-----------8--|-------------------|
--8--------6--7--8-----8--|-----8--------------------|-------------------|
-----6--9-----------------|-----------------9--------|-------------------|


  H        H           W                   H        E  E  E   E   
--------------------|-------------------|--L------------------9--|
--L--------7--------|--6----------------|--L-----------0---------|
--------------------|-------------------|-----------8-----8--10--|
--L--------9--------|--8----------------|--L------------------8--|
--------------------|-------------------|------------------------|
--------------------|-------------------|------------------------|


  W                   H        H           W                 
--L----------------|--L--------7--------|--6----------------|
-------------------|--------------------|--6----------------|
--L----------------|--L--------8--------|-------------------|
--L----------------|--L--------6--------|--8----------------|
-------------------|--------------------|-------------------|
-------------------|--------------------|-------------------|


  H        H          
--L-----------------||
--L-----------------||
--------------------||
--L-----------------||
--------------------||
--------------------||


Bass
     E  E  E  E  E  E  E  E     E  E  E  E  E  E  E  E   
G||--------------------------|--------------------------|
D||-----------------8--------|-----------------9--------|
A||--------8-----------------|--------9-----------------|
E||--6--6-----6--6-----6--6--|--7--7-----7--7-----7--7--|


  E  E  E  E  E  E  E  E     E  E  E  E  E  E  E  E   
--------------------------|--------------------------|
-----------------8--------|-----------------9--------|
--------8-----------------|--------9-----------------|
--6--6-----6--6-----6--6--|--7--7-----7--7-----7--7--|


  E  E  E  E  E  E  E  E     E  E  E  E  E  E  E  E   
--------------------------|--------------------------|
-----------------8--------|-----------------9--------|
--------8-----------------|--------9-----------------|
--6--6-----6--6-----6--6--|--7--7-----7--7-----7--7--|


  E  E   E  E  E   E  E  E     E  E  E  E  E  E  E  E   
----------------------------|--------------------------|
------------------10--------|--------------------------|
--------10------------------|--------9-----------6--7--|
--8--8------8--8------8--8--|--7--7-----7--7--9--------|


  E  E  E  E  E  E  E  E     E  E  E  E  E  E  E  E   
--------------------------|--------------------------|
-----------------8--------|-----------------9--------|
--8-----8-----------8-----|--------9-----------9-----|
-----6-----6--6--------6--|--7--7-----7--7--------7--|


  E  E   E  E  E   E   E  E     E  E  E  E  E.   E.  E   
-----------------------------|--------------------------|
------------------10---------|--------------------------|
--------10------------10-----|--------9--------------6--|
--8--8------8--8----------8--|--7--7-----7--9---10------|


  E  E  E  E  E  E  E  E     E  E  E  E  E  E  E  E   
--------------------------|--------------------------|
-----------------0--------|--------------------------|
--L--6--6--6--6-----------|--------9-----------------|
--------------------9--7--|--L--7-----7--7--7--6--7--|


  E  E   E  E  E   E   E  E      E  E  E   E  E   Q    E   
-----------------------------|--10------------------------|
------------------11---------|------------11--------------|
--------11------------11-----|-------------------11----8--|
--9--9------9--9----------9--|------9--9------9-----------|


  E  E  E  E  E  E  E  E     E  E  E  E  E  E  E  E   
--------------------------|--------------------------|
-----------------0--------|--------------------------|
--6--6--6--6--6-----------|--------9-----------------|
--------------------9--7--|--L--7-----7--7--7--6--7--|


  E  E   E  E  E   E   E  E     E   E   E  E  E.  E.  E   
-----------------------------|---------------------------|
------------------11---------|-----11--10--9--8----------|
--------11------------11-----|--------------------8------|
--9--9------9--9----------9--|--9---------------------6--|


  E  E  E  E  E  E  E  E     E  E  E  E  E  E  E  E   
--------------6-----------|--------------8-----------|
-----8-----------8--------|-----------9-----9--------|
--------8-----------8-----|--------9-----------------|
--L--------6-----------6--|--7--7--------------7--7--|


  E  E  E  E   E  E  E  E     E  E  E  E  E   E  E  E   
--------0------------------|--------------8------8--9--|
-----------8--10--8--------|-----------9-----11--------|
---------------------------|--------9------------------|
--8--8---------------8--8--|--7--7---------------------|


   E   E  E  E  E  E  E  E     E  E  E  E  E  E  E  E   
--10------------6-----------|--------------8-----------|
------11-----------8--------|-----------9-----9--------|
----------8-----------8-----|--------9-----------------|
-------------6-----------6--|--7--7--------------7--7--|


  E  E  E  E   E  E  E  E     E  E  E  E  E  E  E  E   
--------0------------------|--------------------------|
-----------8--10--8--------|--9--9-----8-----6--------|
---------------------------|--------8-----------------|
--8--8---------------8--8--|-----------------------6--|


  E  E  E  E  E  E  E  E     E  E  E  E  E  E  E  E   
--------------------------|--------------------------|
-----------------8--------|--------------9--9--------|
--------8-----------------|--------8-----------------|
--L--6-----6--6-----6--6--|--6--6-----6--------7--7--|


  E  E  E  E  E  E  E  E     E  E  E  E  E  E  E  E   
--------------------------|-----------6--------------|
--------------8-----------|--------------9-----------|
--------6--8-----8--------|-----------------9--------|
--6--6--------------6--6--|--6--6--6-----------7--6--|


  E  E  E  E  E  E  E  E     E  E  E  E  E  E  E  E   
--------------------------|--------------------------|
-----------------8--------|--------------9--9--------|
--------8-----------------|--------8-----------------|
--L--6-----6--6-----6--6--|--6--6-----6--------7--7--|


  E  E  E  E  E  E  E  E     W                  
--------------------------|-------------------||
--------------8-----------|-------------------||
--------6--8-----8--------|-------------------||
--6--6--------------6--6--|--1----------------||




Duration Legend
---------------
W - whole
H - half
Q - quarter
E - 8th
S - 16th
. - note dotted


Tablature Legend
----------------
L - tied note
Login or Register to remove this ad.

1 comment on Vile's Theme

good tab, I really was in

good tab, I really was in need *_*