Login or Register to remove this ad.

Sigma 2nd (Solo) (Mega Man X6) Guitar Tab

Submitted: Jul 15, 2017 by JordanVS

5
Average: 5 (1 vote)
Download | Listen
Game: Mega Man X6
Composer(s): Naoto Tanaka
Style: Arrangement, Fingerstyle
Series: Mega Man

AutoScroll: Slow | Medium | Fast
Sigma 2nd                                               
Final Boss Theme
Mega Man X6
Naoto Tanaka 
JordanVS

-Tempo : 140

   6/4				     5/4			   4/4
     Q    Q    H        E.  E.  S S    Q    Q    Q    E.  E.  S S    W                 
E||---------------------------------|-----------------------------|-------------------|
B||---------------------------------|-------1---------------------|--3----------------|
G||-------2-------------------------|--0---------2----------------|--0----------------|
D||--0---------3--------------------|-----------------------------|--0----------------|
A||---------------------------------|-----------------------------|-------------------|
E||--3----3----3--------3---3---3-3-|--3--------------3---3---3-3-|--3----------------|


    PM PM PM PM PM PM PM PM                  PM PM PM PM PM PM PM PM                
    S  S  S  S  S  S  S  S  S S S  S Q       S  S  S  S  S  S  S  S  S S  S S Q     
|-----------------------------------------|----------------------------------------|
|-----------------------------------------|----------------------------------------|
|*--------------------------2---3p-2-L----|--------------------------0-2p-0--------|
|*-----2-----2-----2-----2----2-----------|-----2-----2-----2-----2---------0-L----|
|-----------------------------------------|----------------------------------------|
|---0-----0-----0-----0-------------------|--0-----0-----0-----0-------------------|


  PM PM PM PM PM PM PM PM                  PM PM PM PM PM PM PM PM                
  S  S  S  S  S  S  S  S  S S S  S Q       S  S  S  S  S  S  S  S  S S  S S Q     
----------------------------------------|----------------------------------------|
----------------------------------------|----------------------------------------|
--------------------------2---3p-2-L----|--------------------------0-2p-0--------|
-----2-----2-----2-----2----2-----------|-----2-----2-----2-----2---------0-L----|
----------------------------------------|----------------------------------------|
--0-----0-----0-----0-------------------|--0-----0-----0-----0-------------------|


  E.  S E  E  E.  S E  E     E.  S E  E  Q    Q       E.  S E  E  E.  S E  E   
--------------------------|------------------------|--------------------------|
------0-------------------|------------------------|------0----------------3--|
--------------3---2----0--|--2---0-----------------|--------------3---2-------|
--2--------2--------------|-----------2--0----1----|--2--------2--------------|
--------------------------|------------------------|--------------------------|
--0-----0-----0-----0-----|--0-----0-----0----0----|--0-----0-----0-----0-----|


  |--3--|  |--3--|  |--3--|  |--3--|                                                       
  E  E  E  E  E  E  E  E  E  E  E  E     E.  S E  E  E.  S E  E     E.  S E  E  Q    Q     
--------------------------------------|------0-------------------|------------------------|
--5--6--5--4--5--4--3--4--3--2--3-----|--0--------0--------------|-----------3------------|
-----------------------------------2--|--------------3---2----0--|--2---0-------2----3----|
--7--8--7--6--7--6--5--6--5--4--5--0--|--------------------------|------------------------|
--------------------------------------|--------------------------|------------------------|
--------------------------------------|--0-----0-----0-----0-----|--0-----0-----0----0----|
              
                                                                                                                                      ^                      
                             |--3--|  |--3--|  |--3--|  |--3--|                            
  E.  S E  E  E.  S E  E     E  E  E  E  E  E  E  E  E  E  E  E     E.  E.  E  E.  E.  E   
------0-------------------|-----6--------5--------4--------------|------------------------|
--0--------0-----------3--|--5-----5--4-----4--3-----3--2--------|--0---0---0--0----------|
--------------3---2-------|--------------------------------0--2--|--0----------L---2---0--|
--------------------------|--7--8--7--6--7--6--5--6--5--4--------|--2----------L----------|
--------------------------|--------------------------------------|--3----------3----------|
--0-----0-----0-----0-----|--------------------------------------|------------------------|

 									3/4
  ^                   ^      ^        ^             ^        ^    ^                            
  E.  E.  E  H        S S    H        E.  E.  E     H        Q    Q       E.  E  S E  S S S S  
------------------------0-|--1--------1---0------|--0--------0----2----|----------------------|
------3---L-----------3---|--3--------3-------3--|--1--------1----3----|----------------------|
--2-------L-----------2---|--2--------2-------L--|--0--------0----2----|------0-----------0---|
--4-------L-----------4---|--3--------3-------L--|--2--------2----4----|--2------2-0--2-------|
--2----------2------------|--1--------1----------|--0--------0----2----|----------------------|
--------------------------|----------------------|---------------------|--0-------------------|


  E.  E  S E  S S S S    E.  E  S E  S S S S    E.  E  S E  S S S S    E.  E  S E  E  S  S  
----------------------|----------------------|--------------------1-|--0---2--0------------|
--------------------0-|------2-----------2---|------2---------1-2---|--2---L----2--L--2h-4-|
------0-----------0---|--3------3-1--3-------|--3------3-1--3-------|----------------------|
--2------2-0--2-4-----|----------------------|----------------------|----------------------|
----------------------|--1-------------------|--1-----------1-------|--4-------------------|
--0-----------0-------|----------------------|----------------------|----------------------|

							       4/4
  E.  E  S E  S S S S    E.  E  S E  E  S S     H        Q       H        Q    E  E     
--0---2--0----0-------|--0-----------L--5-7-|---8-------------|--L--------------------||
-----------2----4-2---|------1--------------|--10-------------|--L--------------------||
--------------------1-|--2------2-0--2------|-----------------|----------------------*||
----------------------|---------------------|-----------------|----------------------*||
--4-----------4-------|--0------------------|---0--------0----|--0--------0----0--0---||
----------------------|---------------------|-----------------|-----------------------||




Duration Legend
---------------
W - whole
H - half
Q - quarter
E - 8th
S - 16th
T - 32nd
X - 64th
. - note dotted
|-n-|  - n-tuplets


Tablature Legend
----------------
L - tied note
x - dead note
PM - palm mute
^ - brush up
v - brush down
Login or Register to remove this ad.