Ads

Infinity Mijinion Stage (Version 2) (Mega Man X6) Guitar Tab

Submitted: Oct 09, 2022 by Omnicide (Last updated: Oct 09, 2022)

5
Average: 5 (2 votes)
Download | Listen
Game: Mega Man X6
Composer(s): Naoto Tanaka
Style: Arrangement, Fingerstyle
Series: Mega Man

This song is also called Weapon Center

AutoScroll: Slow | Medium | Fast
Infinity Mijinion Stage
Mega Man X6
Composed by Naoto Tanaka
Arranged by William Geesdorf


     E  E  E  Q    E  E  E     H        Q    Q       Q.     S  S Q    Q     
E||----------------------0--|---------------------|--2------2h-4-5----2----|
B||-----------2-------0-----|--2------------------|--3---------------------|
G||----------------2--------|--2------------------|------------------------|
D||--4--2--4----------------|---------------------|--0---------------------|
A||-------------------------|---------------------|------------------------|
E||--2----------------------|--2--------2----0----|------------------------|


  H        Q    Q       E  E  E  Q    E  E  S  S    H        Q    Q     
---------------------|-----------2----------5s-7-|---------------------|
--2------------------|--2-----2-------3--5-------|--7------------------|
--2------------------|-----4---------------------|--7------------------|
--0--------0---------|---------------------------|---------------------|
----------------4----|--2------------------------|---------------------|
---------------------|---------------------------|--7--------7----7----|


                                                       ^                  
  Q.     S   S  H            Q    Q    E  E  E  E      H        H         
-------------------------|---9----------------------|--2-----------------|
--9------9h-10-12--------|--------------------------|--2-----------------|
--9----------------------|--10----------------------|--2-----------------|
-------------------------|--------------------------|--4-----------------|
-------------------------|--------------------------|--4-----------------|
--0-------------0--------|---9----9----9--9--9--9\--|--2--------2--------|


  H        Q    E  E       Q    E  E  E.  E.  E     Q    E  E  Q    Q     
----------------------||----------------------0--|-------------2----0----|
----------------------||---0----------0---2------|--2--------------------|
----------------------||*------------------------|----------2------------|
----------------2--4--||*----------4-------------|-------2---------------|
----------------------||--------4----------------|--0----------0---------|
--2--------2----------||---2----------2----------|-----------------------|


  Q    E  E  E  Q    E     Q.     E  Q    E  E     Q    E  E  E.  E.  E   
------------------------|-----------------------|---------------------0--|
---------------------2--|--0--------------------|--0----------0---2------|
--2-------2-----4-------|-----------------------|------------------------|
-------4----------------|---------2-------2--4--|----------4-------------|
--2----------2----------|--4---------4----------|-------4----------------|
------------------------|-----------------------|--2----------2----------|


  Q    E  E  Q    Q       Q    E  E  E  Q    E     H        H         
-------------2----0----|------------------------|--------------------|
--2--------------------|---------------------2--|--5-----------------|
----------2------------|--2-------2-----4-------|--4-----------------|
-------2---------------|-------4----------------|--------------------|
--0----------0---------|--2----------2----------|--4--------4--------|
-----------------------|------------------------|--------------------|


  H        H           E  E  E  E  H           Q.     E  H         
--------------------|-----------------------|---------------------|
--------------------|-----0--2--0-----------|--2------0-----------|
--------------------|--2--------1-----------|--2------1-----------|
--4-----------------|--0--------------------|--0------------------|
--5--------5--------|-----------------------|---------------------|
--------------------|--------------0--------|------------0--------|


  E  E  E  E  Q    E  E     H        H           E  E  E  E  H         
-------------------------|--------------------|-----------------------|
-----0-------------------|--------------------|-----0--2--0-----------|
--2-----2----------------|--------------------|--2--------1-----------|
--0--------2----------2--|--4-----------------|--0--------------------|
-----------2-------4-----|--5--------5--------|-----------------------|
--------------0----------|--------------------|--------------0--------|


  Q.     E  E  Q.        Q    E  E  E  E  E  E     H        H         
----------------------|-------7--4--------------|--------------------|
--2------0-----5------|-------------5-----------|--------------------|
--2------1-----6------|----------------4--------|--------------------|
--0-------------------|-------------------6-----|--7--------9--------|
----------------------|--4----------4--------7--|--5--------7--------|
------------0---------|-------------------------|--------------------|


  E  E  Q    E  S  S E  E     S E.  E.  S E  E.  E.   
---------------------------|-------------------------|
---------------------0-----|----0----------------0---|
--------2-------0h-2----2--|--------2---0----2-------|
-----2---------------------|-------------------------|
--0----------0-------------|-------------------------|
---------------------------|--3-----------3----------|


  E  E  Q    E  E  E   E     E.  E.  E  S E.  Q       E  E  Q    E  S  S E  E   
--------------------------|------------------------|---------------------------|
----------------1--3s--5--|--3----------------3----|--------1------------3-----|
--------2-----------------|------5---4----5--------|-----2----------4h-5----5--|
-----3--------------------|------------------------|---------------------------|
--------------------------|------------------------|--0----------0-------------|
--1----------1------------|--3----------3----------|---------------------------|


  S E.  E.  S E  E.  E.     E  E  Q    E  E  E  E     E.  E.  E  S E.  Q     
-------------------------|--------1-------------1--|--3---5---7----5---3----|
----3----------------3---|-----1-------------1-----|------------------------|
--------5---4----5-------|----------------2--------|------------------------|
-------------------------|-------------------------|------------------------|
-------------------------|-------------------------|------------------------|
--3-----------3----------|--1----------1-----------|--3----------3----------|


  E  E  E  E  Q    E  E     E  Q.     E  E  E  E     E  E  E  E  Q    E  E   
-------------------------|-----3------------------|-----------5-------3--5--|
-----------1-------0--1--|--3---------------3--5--|--6--5--6----------------|
--2--0--2----------------|---------------4--------|-------------------------|
--0-----------0----------|--2---------2-----------|--3-----------3----------|
-------------------------|------------------------|-------------------------|
-------------------------|------------------------|-------------------------|


  E  Q.     E  E  E  E     Q.     S  S E  E  E  E     Q.     E  H         
--3---------------------|--------------0--------0--|--5------4-----------|
-----3---------1--3--0--|--1------1h-3-------1-----|---------------------|
------------------------|-----------------2--------|--5------4-----------|
--2---------2-----------|--0-----------0-----------|---------------------|
------------------------|--------------------------|---------------------|
------------------------|--------------------------|--0---------0--------|

                        1st Ending               2nd Ending
  Q.     E  H           H        Q    E  E       W                 
--8------7-----------|-----------------------||-------------------|
---------------------|-----------------------||-------------------|
--9------7-----------|----------------------*||-------------------|
---------------------|----------------2--4--*||-------------------|
---------------------|-----------------------||-------------------|
--0---------0--------|--0--------0-----------||--0----------------|


  ^                                      
  W                   W                  
--2----------------|--L----------------||
--2----------------|--L----------------||
--2----------------|--L----------------||
--4----------------|--L----------------||
--4----------------|--L----------------||
--2----------------|--L----------------||




Duration Legend
---------------
W - whole
H - half
Q - quarter
E - 8th
S - 16th
T - 32nd
X - 64th
. - note dotted
|-n-|  - n-tuplets


Tablature Legend
----------------
L - tied note
h - hammer on
s - legato slide
\ -  slide into from above or out of downwards
^ - brush up
Login or Register to remove this ad.

2 comments on Infinity Mijinion Stage (Version 2)

Recommendation

5

I do not have a guitar. I have just started learning it by ukulele. Can I?

Well, if it works, go for it!

Well, if it works, go for it!