Ads

Blizzard Wolfang (Mega Man X6) Guitar Tab

Submitted: Sep 09, 2012 by ChelseaRare

5
Average: 5 (2 votes)
Download | Listen
Game: Mega Man X6
Composer(s): Naoto Tanaka
Style: Arrangement, Fingerstyle
Series: Mega Man

AutoScroll: Slow | Medium | Fast
Megaman X6 - Blizzard Wolfang                                 
Composed by Naoto Tanaka
Arranged by Chelsea Intal

Drop D Tuning (DADGBE)


     E  E  E  E  E  E  E  S  S     E  E  E   E  E  E   E   E   
E||----------------------------|------8--L---L--L--L------10--|
B||----------------------------|---8------------------10------|
G||-----7--L--L--L--L-----9-10-|------------------------------|
D||--7-------------------------|------------------------------|
A||----------------------------|------------------------------|
D||--8--------8--------8-------|--10--------10--------10------|


  Q.     Q     E  Q        W                   E  E  E  S S E  S E.  E   
--L------L----12--L----|--10----------------|---------------------------|
-----------------------|--------------------|--------------------6------|
-----------------------|--------------------|-----------7---5--------7--|
--0------0--------0----|---0----------------|--5-----5----8-7--8--------|
-----------------------|--------------------|-----5---------------------|
-----------------------|--------------------|--5------------------------|


  E  E  E  S S E  S E.  E     E  S E.  E  E  E  E  E   
--------------------5------|--6----5---3-----------3--|
-----------8---6--L--------|-----------------6--------|
-------------7-------------|--------------------------|
--------5--7---8-----------|--------------3-----------|
-----5---------------------|-----3--------------3-----|
--5---------------------5--|--3-----------------------|


  E  E  E  Q    E  E  E     E  E  E  S S E  S S E  E   
--L----------------------|----------------------------|
-------------------------|--------------------6-------|
-----------3-------3--2--|-----------7---5---------7--|
--------5-------5--------|--5-----5----8-7--8---5-----|
-----5-------------------|-----5----------------------|
--5----------------------|--5-------------------------|


  E  E  E  S S E  S E.  E     E  S E.   E  E  Q    E   
--------------------5------|--6----5s---8-----6-------|
-----------8---6--L--------|-----------------------8--|
-------------7-------------|--------------------------|
--------5--7---8-----------|--------------------------|
-----5---------------------|-----3---------8----------|
--5---------------------5--|--3-----------------------|


  E  E  E  Q    E  E  E     E  S E  S E  Q.     S S    E  S E  S E  Q.     S S  
-------------------------|--------------------------|--------------------------|
--L----------------------|--------------------------|--------------------------|
-------------------------|--0--L-L--L---------------|--5--L-L--L-8--L----------|
--------5--8----5--8--7--|------------8--L----------|--------------------------|
-----5-------------------|-------6----6-----------6-|-------6----6-----------6-|
--5----------------------|--6--6----6-----------6---|--6--6----6-----------6---|


  E  S E  S E  Q.     S S    E  S E  S Q    E  E  E   
--------------------------|--------------------------|
--6--L-L--L---------------|--------------------------|
------------7--L----------|--------------------------|
--------------------------|--------------------------|
-------5----5-----------5-|-------5----5----6--5-----|
--5--5----5-----------5---|--5--5----5------------5--|


  E  S E  S E  Q.     S S    E  S E  S E  Q.     S S  
--------------------------|--------------------------|
--------------------------|--------------------------|
--0--L-L--L---------------|--5--L-L--L-7--L----------|
------------8--L----------|--------------------------|
-------6----6-----------6-|-------6----6-----------6-|
--6--6----6-----------6---|--6--6----6-----------6---|


                                              |--3--|   
  E  S E  S E  Q.     S S    E  S E  S Q.     E  E  E   
--------------------------|----------------------------|
--------------------------|----------------------------|
--5--L-L--L---------------|-------------------3--3--3--|
------------8--L----------|----------------------------|
-------5----5-----------5-|-------5----5---------------|
--5--5----5-----------5---|--5--5----5-----------------|


                   |--3--|                    |--3--|   
  E  E  E  Q    E  E  E  E     E.  S H        E  E  E   
----------------------------|--------------------------|
--1-------------1--1--1--1--|--3-----------------------|
----------------------------|------0-0--------------3--|
--------3-------------------|--------1--------0--1-----|
-----3----------------------|--------------------------|
--3--------3-------3--L--L--|--1-----1-----------------|


                    |-3-| |3|                                      
  E  E  E  E  E  E  E   S S E      E   E   E   E   E   E   E   E   
-------------------------------|----------------------------------|
-------------------------------|----------------------------------|
--0-----5-----7-----7--10---8--|----------------------12--10------|
--------6-----------8----------|----------10--12--13----------13--|
-----6-----6-----8--------8----|------10--------------------------|
--6-----------8----------------|--10------------------------------|


  E  Q    E  Q    E  E     E  Q    E  Q    E  E     Q.     E  E  Q.      
------------------------|--L---------------------|----------------------|
--6--8------------------|--4--6------------------|--4------3-----6------|
----------5-------7--8--|------------------5--7--|------------8---------|
------------------------|----------8-------------|----------------------|
------------------------|------------------------|----------------------|
--6----------6----------|--5----------5----------|--3---------5---------|


   W                  
--------------------||
--------------------||
---8----------------||
--10----------------||
--------------------||
--10----------------||




Duration Legend
---------------
W - whole
H - half
Q - quarter
E - 8th
S - 16th
T - 32nd
X - 64th
. - note dotted
|-n-|  - n-tuplets


Login or Register to remove this ad.