Zero Virus Stage 1 (Mega Man X5) Bass/Guitar Tab

Submitted: Dec 19, 2012 by JordanVS (Last updated: Dec 20, 2012)

5
Average: 5 (2 votes)
Download | Listen
Game: Mega Man X5
Composer(s): Naoya Kamisaka, Naoto Tanaka, Takuya Miyawaki
Style: 2 or more instruments, Alternate picking, Arrangement, Fingerstyle, Transcription
Series: Mega Man

AutoScroll: Slow | Medium | Fast
Zero Virus Stage 1                               
Crater / Cyber Maze
Mega Man X5
Composed by Naoto Tanaka, Naoya Kamisaka, and Takuya Miyawaki
JordanVS


  

*To fulfill marco's Request
*Like the song,all tracks changes at 0:53!
Sometimes not only the notes but the instrument too,so be aware!




      Main


      E   E   E   Q     E   E   E     E   E   E   Q     E   E   E   
E||--------------15----------------|-------------15----------------|
B||--13------13------------13--15--|--L------13------------13--15--|
G||------12------------12----------|-----12------------12----------|
D||--------------------------------|-------------------------------|
A||--------------------------------|-------------------------------|
E||--------------------------------|-------------------------------|


  E   E   E   Q     E   E   E     E   E   E   Q     E   E   E   
-------------15----------------|-------------15----------------|
--L------13------------13--15--|--L------13------------13--15--|
-----12------------12----------|-----12------------12----------|
-------------------------------|-------------------------------|
-------------------------------|-------------------------------|
-------------------------------|-------------------------------|


  E   E   E   Q     E   E   E     E   E   E   Q     E   E   E   
-------------15----------------|-------------15----------------|
--L------13------------13--15--|--L------13------------13--15--|
-----12------------12----------|-----12------------12----------|
-------------------------------|-------------------------------|
-------------------------------|-------------------------------|
-------------------------------|-------------------------------|


  E   E   E   Q     E   E   E     E   E   E   Q     E   E   E   
-------------15----------------|-------------15----------------|
--L------13------------13--15--|--L------13------------13--15--|
-----12------------12----------|-----12------------12----------|
-------------------------------|-------------------------------|
-------------------------------|-------------------------------|
-------------------------------|-------------------------------|


  E   E   E   Q     E   E   E     E   E   E   Q     E   E   E   
-------------15----------------|-------------15----------------|
--L------13------------13--15--|--L------13------------13--15--|
-----12------------12----------|-----12------------12----------|
-------------------------------|-------------------------------|
-------------------------------|-------------------------------|
-------------------------------|-------------------------------|


  E   E   E   Q     E   E   E     E   E   E   Q     E   E   E   
-------------15----------------|-------------15----------------|
--L------13------------13--15--|--L------13------------13--15--|
-----12------------12----------|-----12------------12----------|
-------------------------------|-------------------------------|
-------------------------------|-------------------------------|
-------------------------------|-------------------------------|


  E   E   E   Q     E   E   E     E   E   E   Q     E   E   E   
-------------15----------------|-------------15----------------|
--L------13------------13--15--|--L------13------------13--15--|
-----12------------12----------|-----12------------12----------|
-------------------------------|-------------------------------|
-------------------------------|-------------------------------|
-------------------------------|-------------------------------|


  E   E   E   Q     E   E   E     E   E   E   Q     E   E   E   
-------------15----------------|-------------15----------------|
--L------13------------13--15--|--L------13------------13--15--|
-----12------------12----------|-----12------------12----------|
-------------------------------|-------------------------------|
-------------------------------|-------------------------------|
-------------------------------|-------------------------------|


  E   E   E   Q     E   E   E     E   E   E   Q     E   E   E   
-------------15----------------|-------------15----------------|
--L------13------------13--15--|--L------13------------13--15--|
-----12------------12----------|-----12------------12----------|
-------------------------------|-------------------------------|
-------------------------------|-------------------------------|
-------------------------------|-------------------------------|


  E   E   E   Q     E   E   E     E   E   E   Q     E   E   E   
-------------15----------------|-------------15----------------|
--L------13------------13--15--|--L------13------------13--15--|
-----12------------12----------|-----12------------12----------|
-------------------------------|-------------------------------|
-------------------------------|-------------------------------|
-------------------------------|-------------------------------|


  E   E   E   Q     E   E   E     E   E   E   Q     E   E   E   
-------------15----------------|-------------15----------------|
--L------13------------13--15--|--L------13------------13--15--|
-----12------------12----------|-----12------------12----------|
-------------------------------|-------------------------------|
-------------------------------|-------------------------------|
-------------------------------|-------------------------------|


  E   E   E   Q     E   E   E     E   E   E   Q     E   E   E   
-------------15----------------|-------------15----------------|
--L------13------------13--15--|--L------13------------13--15--|
-----12------------12----------|-----12------------12----------|
-------------------------------|-------------------------------|
-------------------------------|-------------------------------|
-------------------------------|-------------------------------|


  E   E   E   Q     E   E   E     E   E   E   Q     E   E   E   
-------------15----------------|-------------15----------------|
--L------13------------13--15--|--L------13------------13--15--|
-----12------------12----------|-----12------------12----------|
-------------------------------|-------------------------------|
-------------------------------|-------------------------------|
-------------------------------|-------------------------------|


  E   E   E   Q     E   E   E     E   E   E   Q     E   E   E   
-------------15----------------|-------------15----------------|
--L------13------------13--15--|--L------13------------13--15--|
-----12------------12----------|-----12------------12----------|
-------------------------------|-------------------------------|
-------------------------------|-------------------------------|
-------------------------------|-------------------------------|


  E   E   E   Q     E   E   E     E   E   E   Q     E   E   E   
-------------15----------------|-------------15----------------|
--L------13------------13--15--|--L------13------------13--15--|
-----12------------12----------|-----12------------12----------|
-------------------------------|-------------------------------|
-------------------------------|-------------------------------|
-------------------------------|-------------------------------|


                                                    *Change
  E   E   E   Q     E   E   E     Q    H.               H         Q     E   E   
-------------15----------------|--------------------|--------------------------|
--L------13------------13--15--|--L-----------------|--13--------12------------|
-----12------------12----------|--------------------|------------------12--14--|
-------------------------------|--------------------|--------------------------|
-------------------------------|--------------------|--------------------------|
-------------------------------|--------------------|--------------------------|


  H         H            W                   H         Q     Q     
---------------------|--------------------|-----------------------|
-----------12--------|--------------------|-----------------------|
--L------------------|--12----------------|--L--------12----14----|
---------------------|--------------------|-----------------------|
---------------------|--------------------|-----------------------|
---------------------|--------------------|-----------------------|


   H         Q     E   E     H        H            W                 
--------------------------|--------------------|--------------------|
--------------------------|--------------------|--------------------|
--15--------13----12--10--|--L--------8--------|--10----------------|
--------------------------|--------------------|--------------------|
--------------------------|--------------------|--------------------|
--------------------------|--------------------|--------------------|


  W                    H         Q     E   E     H         H         
-------------------|------------------15--17--|--L------------------|
-------------------|--13--------12------------|---------------------|
--L----------------|--------------------------|-----------16--------|
-------------------|--------------------------|---------------------|
-------------------|--------------------------|---------------------|
-------------------|--------------------------|---------------------|


   W                   H         Q     Q        H         Q     E   E   
--15----------------|--L--------15----17----|--18--------16----14--13--|
--------------------|-----------------------|--------------------------|
--------------------|-----------------------|--------------------------|
--------------------|-----------------------|--------------------------|
--------------------|-----------------------|--------------------------|
--------------------|-----------------------|--------------------------|


  H         Q     E   E     W                   W                 
--L----------------------|-------------------|-------------------|
-----------16----14--16--|--L----------------|--L----------------|
-------------------------|-------------------|-------------------|
-------------------------|-------------------|-------------------|
-------------------------|-------------------|-------------------|
-------------------------|-------------------|-------------------|


   W                   W                    E   E   E   E   E   E   E   E   
--13----------------|--L----------------|--18------18--18------20--18------|
--------------------|-------------------|------------------18----------18--|
--------------------|-------------------|------15--------------------------|
--------------------|-------------------|----------------------------------|
--------------------|-------------------|----------------------------------|
--------------------|-------------------|----------------------------------|


   E   E   E   E   E   E   Q      
--18--18------20--18------18----||
----------18----------18--------||
--------------------------------||
--------------------------------||
--------------------------------||
--------------------------------||




Duration Legend
---------------
W - whole
H - half
Q - quarter
E - 8th
. - note dotted


Tablature Legend
----------------
L - tied note





  Main -8




     E  E  E  Q    E  E  E     E  E  E  Q    E  E  E   
E||-----------3-------------|-----------3-------------|
B||----------------------3--|--L-------------------3--|
G||--5-----5----------5-----|--------5----------5-----|
D||-----5----------5--------|-----5----------5--------|
A||-------------------------|-------------------------|
E||-------------------------|-------------------------|


  E  E  E  Q    E  E  E     E  E  E  Q    E  E  E     E  E  E  Q    E  E  E   
-----------3-------------|-----------3-------------|-----------3-------------|
--L-------------------3--|--L-------------------3--|--L-------------------3--|
--------5----------5-----|--------5----------5-----|--------5----------5-----|
-----5----------5--------|-----5----------5--------|-----5----------5--------|
-------------------------|-------------------------|-------------------------|
-------------------------|-------------------------|-------------------------|


  E  E  E  Q    E  E  E     E  E  E  Q    E  E  E     E  E  E  Q    E  E  E   
-----------3-------------|-----------3-------------|-----------3-------------|
--L-------------------3--|--L-------------------3--|--L-------------------3--|
--------5----------5-----|--------5----------5-----|--------5----------5-----|
-----5----------5--------|-----5----------5--------|-----5----------5--------|
-------------------------|-------------------------|-------------------------|
-------------------------|-------------------------|-------------------------|


  E  E  E  Q    E  E  E     E  E  E  Q    E  E  E     E  E  E  Q    E  E  E   
-----------3-------------|-----------3-------------|-----------3-------------|
--L-------------------3--|--L-------------------3--|--L-------------------3--|
--------5----------5-----|--------5----------5-----|--------5----------5-----|
-----5----------5--------|-----5----------5--------|-----5----------5--------|
-------------------------|-------------------------|-------------------------|
-------------------------|-------------------------|-------------------------|


  E  E  E  Q    E  E  E     E  E  E  Q    E  E  E     E  E  E  Q    E  E  E   
-----------3-------------|-----------3-------------|-----------3-------------|
--L-------------------3--|--L-------------------3--|--L-------------------3--|
--------5----------5-----|--------5----------5-----|--------5----------5-----|
-----5----------5--------|-----5----------5--------|-----5----------5--------|
-------------------------|-------------------------|-------------------------|
-------------------------|-------------------------|-------------------------|


  E  E  E  Q    E  E  E     E  E  E  Q    E  E  E     E  E  E  Q    E  E  E   
-----------3-------------|-----------3-------------|-----------3-------------|
--L-------------------3--|--L-------------------3--|--L-------------------3--|
--------5----------5-----|--------5----------5-----|--------5----------5-----|
-----5----------5--------|-----5----------5--------|-----5----------5--------|
-------------------------|-------------------------|-------------------------|
-------------------------|-------------------------|-------------------------|


  E  E  E  Q    E  E  E     E  E  E  Q    E  E  E     E  E  E  Q    E  E  E   
-----------3-------------|-----------3-------------|-----------3-------------|
--L-------------------3--|--L-------------------3--|--L-------------------3--|
--------5----------5-----|--------5----------5-----|--------5----------5-----|
-----5----------5--------|-----5----------5--------|-----5----------5--------|
-------------------------|-------------------------|-------------------------|
-------------------------|-------------------------|-------------------------|


  E  E  E  Q    E  E  E     E  E  E  Q    E  E  E     E  E  E  Q    E  E  E   
-----------3-------------|-----------3-------------|-----------3-------------|
--L-------------------3--|--L-------------------3--|--L-------------------3--|
--------5----------5-----|--------5----------5-----|--------5----------5-----|
-----5----------5--------|-----5----------5--------|-----5----------5--------|
-------------------------|-------------------------|-------------------------|
-------------------------|-------------------------|-------------------------|


  E  E  E  Q    E  E  E     E  E  E  Q    E  E  E     E  E  E  Q    E  E  E   
-----------3-------------|-----------3-------------|-----------3-------------|
--L-------------------3--|--L-------------------3--|--L-------------------3--|
--------5----------5-----|--------5----------5-----|--------5----------5-----|
-----5----------5--------|-----5----------5--------|-----5----------5--------|
-------------------------|-------------------------|-------------------------|
-------------------------|-------------------------|-------------------------|


  E  E  E  Q    E  E  E     E  E  E  Q    E  E  E     E  E  E  Q    E  E  E   
-----------3-------------|-----------3-------------|-----------3-------------|
--L-------------------3--|--L-------------------3--|--L-------------------3--|
--------5----------5-----|--------5----------5-----|--------5----------5-----|
-----5----------5--------|-----5----------5--------|-----5----------5--------|
-------------------------|-------------------------|-------------------------|
-------------------------|-------------------------|-------------------------|


  E  E  E  Q    E  E  E     E  E  E  Q    E  E  E     E  H.           E   
-----------3-------------|-----------3-------------|---------------------|
--L-------------------3--|--L-------------------3--|--L------------------|
--------5----------5-----|--------5----------5-----|---------------------|
-----5----------5--------|-----5----------5--------|---------------------|
-------------------------|-------------------------|---------------------|
-------------------------|-------------------------|---------------------|

*Change

  H        Q    E  E     H        H           W                 
----------------------|--------------------|-------------------|
--1--------0----------|-----------0--------|-------------------|
----------------0--2--|--L-----------------|--0----------------|
----------------------|--------------------|-------------------|
--3--------2-------0--|--L--------2--------|-------------------|
----------------3-----|--------------------|--3----------------|


  H        Q    Q       H        Q    E  E     H        H         
---------------------|----------------------|--------------------|
---------------------|----------------------|--------------------|
--L------------------|----------------------|--------------------|
-----------5----7----|--8--------6----5--3--|--L--------1--------|
---------------------|----------------------|--------------------|
--L--------3----5----|--6--------4----3--1--|--L-----------------|


  W                   W                   H        Q    E  E   
-------------------|-------------------|----------------3--5--|
-------------------|-------------------|--1--------0----------|
-------------------|-------------------|----------------0--2--|
--3----------------|--L----------------|----------------------|
-------------------|-------------------|--3--------2-------0--|
--1----------------|--L----------------|----------------3-----|


  H        H           W                   H        Q    Q     
--L-----------------|--3----------------|--L--------3----5----|
-----------0--------|-------------------|---------------------|
--L-----------------|--0----------------|--L------------------|
--------------------|-------------------|-----------5----7----|
--L--------2--------|-------------------|---------------------|
--------------------|--3----------------|--L--------3----5----|


  H        Q    E  E     H        Q    E  E     W                 
--6--------4----2--1--|--L-------------------|-------------------|
----------------------|----------------------|-------------------|
----------------------|-----------8----6--8--|--L----------------|
--8--------6----4--3--|--L-------------------|-------------------|
----------------------|-----------6----4--6--|--L----------------|
--6--------4----2--1--|--L-------------------|-------------------|


  W                   W                   W                 
-------------------|--1----------------|--L----------------|
-------------------|-------------------|-------------------|
--L----------------|-------------------|-------------------|
-------------------|--3----------------|--L----------------|
--L----------------|-------------------|-------------------|
-------------------|--1----------------|--L----------------|


  E  E  E  E  E   E  E  E     E  E  E   E  E  E  Q      
--6-----6--6------8--6-----|--6--6------8--6-----6----||
--------------6---------6--|--------6---------6-------||
---------------------------|--------------------------||
--8--8--8--8-----10--8-----|--8--8-----10--8-----8----||
--------------8---------8--|--------8---------8-------||
-----6---------------------|--------------------------||






Chords arranged for Guitar



     W                   W                   W                 
E||--3----------------|--L----------------|--1----------------|
B||--3----------------|--L----------------|--1----------------|
G||--3----------------|--L----------------|--2----------------|
D||-------------------|--L----------------|--3----------------|
A||--3----------------|--L----------------|-------------------|
E||-------------------|-------------------|-------------------|


  W                   W                   W                   W                 
--L----------------|-------------------|-------------------|-------------------|
--L----------------|--4----------------|--L----------------|--3----------------|
--L----------------|--5----------------|--L----------------|--0----------------|
--L----------------|--6----------------|--L----------------|--3----------------|
-------------------|-------------------|-------------------|--1----------------|
-------------------|--4----------------|--L----------------|-------------------|


  W                   W                   W                   W                 
-------------------|--3----------------|--L----------------|--1----------------|
-------------------|--3----------------|--L----------------|--1----------------|
--L----------------|--3----------------|--L----------------|--2----------------|
--L----------------|-------------------|-------------------|--3----------------|
--L----------------|--3----------------|--L----------------|-------------------|
-------------------|-------------------|-------------------|-------------------|


  W                   W                   W                   W                 
--L----------------|-------------------|-------------------|-------------------|
--L----------------|--4----------------|--L----------------|--3----------------|
--L----------------|--5----------------|--L----------------|--0----------------|
--L----------------|--6----------------|--L----------------|--3----------------|
-------------------|-------------------|-------------------|--1----------------|
-------------------|--4----------------|--L----------------|-------------------|


  W                   W                   W                   W                 
-------------------|--3----------------|--L----------------|--1----------------|
-------------------|--3----------------|--L----------------|--1----------------|
--L----------------|--3----------------|--L----------------|--2----------------|
--L----------------|-------------------|-------------------|--3----------------|
--L----------------|--3----------------|--L----------------|-------------------|
-------------------|-------------------|-------------------|-------------------|


  W                   W                   W                   W                 
--L----------------|-------------------|-------------------|-------------------|
--L----------------|--4----------------|--L----------------|--3----------------|
--L----------------|--5----------------|--L----------------|--0----------------|
--L----------------|--6----------------|--L----------------|--3----------------|
-------------------|-------------------|-------------------|--1----------------|
-------------------|--4----------------|--L----------------|-------------------|


  W                   W                   W                   W                 
-------------------|--3----------------|--L----------------|--1----------------|
-------------------|--3----------------|--L----------------|--1----------------|
--L----------------|--3----------------|--L----------------|--2----------------|
--L----------------|-------------------|-------------------|--3----------------|
--L----------------|--3----------------|--L----------------|-------------------|
-------------------|-------------------|-------------------|-------------------|


  W                   W                   W                   W                 
--L----------------|-------------------|-------------------|-------------------|
--L----------------|--4----------------|--L----------------|--3----------------|
--L----------------|--5----------------|--L----------------|--0----------------|
--L----------------|--6----------------|--L----------------|--3----------------|
-------------------|-------------------|-------------------|--1----------------|
-------------------|--4----------------|--L----------------|-------------------|


                   *Change

  W                   W                   W                   W                 
-------------------|--0----------------|--L----------------|-------------------|
-------------------|--1----------------|--L----------------|--4----------------|
--L----------------|--2----------------|--L----------------|--5----------------|
--L----------------|-------------------|-------------------|--5----------------|
--L----------------|--0----------------|--L----------------|--3----------------|
-------------------|-------------------|-------------------|-------------------|


  W                   W                   W                   W                 
-------------------|-------------------|-------------------|-------------------|
--L----------------|--2----------------|-------------------|--6----------------|
--L----------------|--1----------------|--3----------------|--5----------------|
--L----------------|--3----------------|--5----------------|--7----------------|
--L----------------|--4----------------|--6----------------|--8----------------|
-------------------|-------------------|-------------------|-------------------|


  W                   W                   W                   W                 
-------------------|--0----------------|--L----------------|-------------------|
--L----------------|--1----------------|--L----------------|--4----------------|
--L----------------|--2----------------|--L----------------|--5----------------|
--L----------------|-------------------|-------------------|--5----------------|
--L----------------|--0----------------|--L----------------|--3----------------|
-------------------|-------------------|-------------------|-------------------|


  W                   W                   W                   W                 
-------------------|-------------------|-------------------|-------------------|
--L----------------|-------------------|--2----------------|--4----------------|
--L----------------|--4----------------|--1----------------|--5----------------|
--L----------------|--4----------------|--3----------------|--6----------------|
--L----------------|--6----------------|--4----------------|-------------------|
-------------------|-------------------|-------------------|--4----------------|


  W                   W                   W                   W                 
-------------------|--1----------------|--L----------------|--L----------------|
--L----------------|--3----------------|--L----------------|--L----------------|
--L----------------|--3----------------|--L----------------|--L----------------|
--L----------------|-------------------|-------------------|-------------------|
-------------------|--1----------------|--L----------------|--L----------------|
--L----------------|-------------------|-------------------|-------------------|


  W                  
--L----------------||
--L----------------||
--L----------------||
-------------------||
--L----------------||
-------------------||

	




  		
Bass


     The bass starts like this but changes soon enough =D
                      
     W                                                    W                 
G||--5-------------------------------------------------|--L----------------|
D||----------------------------------------------------|-------------------|
A||--3-------------------------------------------------|--L----------------|
E||----------------------------------------------------|-------------------|


  W                   W                   W                   W                 
--L----------------|--L----------------|--L----------------|--L----------------|
-------------------|-------------------|-------------------|-------------------|
--L----------------|--L----------------|--L----------------|--L----------------|
-------------------|-------------------|-------------------|-------------------|


  W                   W                   W                   W                 
--L----------------|--L----------------|--5----------------|--L----------------|
-------------------|-------------------|-------------------|-------------------|
--L----------------|--L----------------|--3----------------|--L----------------|
-------------------|-------------------|-------------------|-------------------|


  W                   W                   W                   W                 
--L----------------|--L----------------|--L----------------|--L----------------|
-------------------|-------------------|-------------------|-------------------|
--L----------------|--L----------------|--L----------------|--L----------------|
-------------------|-------------------|-------------------|-------------------|


  W                   W                   W                   W                 
--L----------------|--L----------------|--5----------------|--L----------------|
-------------------|-------------------|-------------------|-------------------|
--L----------------|--L----------------|--3----------------|--L----------------|
-------------------|-------------------|-------------------|-------------------|


  W                   W                   W                   W                 
--L----------------|--L----------------|--L----------------|--L----------------|
-------------------|-------------------|-------------------|-------------------|
--L----------------|--L----------------|--L----------------|--L----------------|
-------------------|-------------------|-------------------|-------------------|


  W                   W                   W                   W                 
--L----------------|--L----------------|--5----------------|--L----------------|
-------------------|-------------------|-------------------|-------------------|
--L----------------|--L----------------|--3----------------|--L----------------|
-------------------|-------------------|-------------------|-------------------|


  W                   W                   W                   W                 
--L----------------|--L----------------|--L----------------|--L----------------|
-------------------|-------------------|-------------------|-------------------|
--L----------------|--L----------------|--L----------------|--L----------------|
-------------------|-------------------|-------------------|-------------------|



                                       *Real Bass
  W                   W                   Q    Q.     E  E  E   
--L----------------|--L----------------|-------2---------0--2--|
-------------------|-------------------|--------------2--------|
--L----------------|--L----------------|--0--------------------|
-------------------|-------------------|-----------------------|


  E  E  Q.     E  E  E     Q    Q.     E  E  E     E  E  E  E  E  Q    E   
--L---------------------|-------5---------3--5--|--L----------------------|
-----1--0---------------|--------------5--------|-----4--3--1-------------|
---------------3--------|--3--------------------|--------------3--1-------|
------------------5--3--|-----------------------|----------------------1--|


  Q    Q.     E  E  E     E  E  E  Q    E  E  E     E  E  E  Q.     E  E   
-------6---------------|--3--1--0----------------|------------------------|
--------------6--5--6--|-----------1----1-----1--|--3---------------------|
--4--------------------|-------------------3-----|-----3--1--0---------0--|
-----------------------|-------------------------|------------------1-----|


  E  E  Q    E  E  E  E     Q    Q.     E  E  E     E  E  Q.     E  E  E   
-------------------------|-------2---------0--2--|--L---------------------|
-------------------------|--------------2--------|-----1--0---------------|
--L-----0----3--1--0-----|--0--------------------|---------------3--------|
-----1----------------1--|-----------------------|------------------5--3--|


  Q    Q.     E  E  E     E  E  E  E  E  Q    E     Q    Q.     Q    E   
-------5---------3--5--|--L----------------------|-------4--------------|
--------------5--------|-----4--3--1-------------|--------------4-------|
--3--------------------|--------------3--1-------|--2----------------4--|
-----------------------|----------------------1--|----------------------|


  E  E  E  E  Q    Q       Q    Q.     Q    E     E  E  E  E  Q    Q     
--------6-----4----6----|----------------------|------------------------|
-----------6------------|-------6--------------|--------6-----4----6----|
--L--4------------------|--------------6-------|-----------6------------|
------------------------|--4----------------4--|--L--4------------------|


  Q    Q.     Q    E     E  E  E  E  Q    Q       W                 
-------3--------------|--------3-----1----3----|-------------------|
--------------3-------|-----------3------------|-------------------|
--1----------------1--|--L--1------------------|--1----------------|
----------------------|------------------------|-------------------|


  W                  
-------------------||
-------------------||
--L----------------||
-------------------||


		



		Bells/Brass



      W                   W                   W                 
E||---8----------------|--L----------------|-------------------|
B||--------------------|-------------------|-------------------|
G||--------------------|-------------------|-------------------|
D||--10----------------|--L----------------|-------------------|
A||--------------------|-------------------|-------------------|
E||--------------------|-------------------|-------------------|


  W                    W                   W                 
-------------------|---8----------------|--L----------------|
-------------------|--------------------|-------------------|
-------------------|--------------------|-------------------|
-------------------|--10----------------|--L----------------|
-------------------|--------------------|-------------------|
-------------------|--------------------|-------------------|


  W                   W                    W                 
-------------------|-------------------|---8----------------|
-------------------|-------------------|--------------------|
-------------------|-------------------|--------------------|
-------------------|-------------------|--10----------------|
-------------------|-------------------|--------------------|
-------------------|-------------------|--------------------|


  W                   W                   W                 
--L----------------|-------------------|-------------------|
-------------------|-------------------|-------------------|
-------------------|-------------------|-------------------|
--L----------------|-------------------|-------------------|
-------------------|-------------------|-------------------|
-------------------|-------------------|-------------------|


   W                   W                   W                 
---8----------------|--L----------------|-------------------|
--------------------|-------------------|-------------------|
--------------------|-------------------|-------------------|
--10----------------|--L----------------|-------------------|
--------------------|-------------------|-------------------|
--------------------|-------------------|-------------------|


  W                    W                   W                 
-------------------|---8----------------|--L----------------|
-------------------|--------------------|-------------------|
-------------------|--------------------|-------------------|
-------------------|--10----------------|--L----------------|
-------------------|--------------------|-------------------|
-------------------|--------------------|-------------------|


  W                   W                    W                 
-------------------|-------------------|---8----------------|
-------------------|-------------------|--------------------|
-------------------|-------------------|--------------------|
-------------------|-------------------|--10----------------|
-------------------|-------------------|--------------------|
-------------------|-------------------|--------------------|


  W                   W                   W                 
--L----------------|-------------------|-------------------|
-------------------|-------------------|-------------------|
-------------------|-------------------|-------------------|
--L----------------|-------------------|-------------------|
-------------------|-------------------|-------------------|
-------------------|-------------------|-------------------|


   W                   W                   W                 
---8----------------|--L----------------|-------------------|
--------------------|-------------------|-------------------|
--------------------|-------------------|-------------------|
--10----------------|--L----------------|-------------------|
--------------------|-------------------|-------------------|
--------------------|-------------------|-------------------|


  W                    W                   W                 
-------------------|---8----------------|--L----------------|
-------------------|--------------------|-------------------|
-------------------|--------------------|-------------------|
-------------------|--10----------------|--L----------------|
-------------------|--------------------|-------------------|
-------------------|--------------------|-------------------|


                                           *0:56 Riff =D

  W                                           Q.     E  E  E  E  E   
-------------------|-------|-------|-------|------------------------|
-------------------|-------|-------|-------|------------------------|
-------------------|-------|-------|-------|------------------7--8--|
-------------------|-------|-------|-------|---------------8--------|
-------------------|-------|-------|-------|---------5--6-----------|
-------------------|-------|-------|-------|------------------------|


  E  H.           E     W                   W                 
--6------------------|-------------------|-------------------|
---------------------|-------------------|-------------------|
---------------------|-------------------|-------------------|
---------------------|-------------------|-------------------|
---------------------|-------------------|-------------------|
---------------------|-------------------|-------------------|


  Q.     E  E  E  E  E     E  Q    E  E  E  E  E     W                 
------------------------|-------------------------|-------------------|
------------------------|--6-------1--------------|-------------------|
------------------3--5--|-------------2-----------|-------------------|
---------------3--------|----------------3--------|-------------------|
---------1--3-----------|-------------------3-----|-------------------|
------------------------|----------------------1--|-------------------|


  W                   Q.     E  E  E  E  E     E  H.           E   
-------------------|------------------------|--6------------------|
-------------------|------------------------|---------------------|
-------------------|------------------7--8--|---------------------|
-------------------|---------------8--------|---------------------|
-------------------|---------5--6-----------|---------------------|
-------------------|------------------------|---------------------|


  W                   W                   W                   W                 
-------------------|-------------------|-------------------|-------------------|
-------------------|-------------------|-------------------|-------------------|
-------------------|-------------------|-------------------|-------------------|
-------------------|-------------------|-------------------|-------------------|
-------------------|-------------------|-------------------|-------------------|
-------------------|-------------------|-------------------|-------------------|


  W                   W                   Q.     E  E  E  E  E   
-------------------|-------------------|---------1--1--1--1--1--|
-------------------|-------------------|---------3--3--3--3--3--|
-------------------|-------------------|------------------------|
-------------------|-------------------|------------------------|
-------------------|-------------------|------------------------|
-------------------|-------------------|------------------------|


  E  E  E  E  E  E  E  E    
--1--1--1--1--1--1--1--1--||
--3--3--3--3--3--3--3--3--||
--------------------------||
--------------------------||
--------------------------||
--------------------------||


		





	Piano/Muted Guitar




*Accompaniment piano

     E   E   E   E   E   E   E   E     E   E   E   E   E   E   E   E   
E||-----20--20--20--20--20--20--20--|-----20--20--20--20--20--20--20--|
B||---------------------------------|---------------------------------|
G||---------------------------------|---------------------------------|
D||-----22--22--22--22--22--22--22--|-----22--22--22--22--22--22--22--|
A||---------------------------------|---------------------------------|
E||---------------------------------|---------------------------------|


  E   E   E   E   E   E   E   E     E   E   E   E   E   E   E   E   
-----20--20--20--20--20--20--20--|-----20--20--20--20--20--20--20--|
---------------------------------|---------------------------------|
---------------------------------|---------------------------------|
-----22--22--22--22--22--22--22--|-----22--22--22--22--22--22--22--|
---------------------------------|---------------------------------|
---------------------------------|---------------------------------|


  E   E   E   E   E   E   E   E     E   E   E   E   E   E   E   E   
-----20--20--20--20--20--20--20--|-----20--20--20--20--20--20--20--|
---------------------------------|---------------------------------|
---------------------------------|---------------------------------|
-----22--22--22--22--22--22--22--|-----22--22--22--22--22--22--22--|
---------------------------------|---------------------------------|
---------------------------------|---------------------------------|


  E   E   E   E   E   E   E   E     E   E   E   E   E   E   E   E   
-----20--20--20--20--20--20--20--|-----20--20--20--20--20--20--20--|
---------------------------------|---------------------------------|
---------------------------------|---------------------------------|
-----22--22--22--22--22--22--22--|-----22--22--22--22--22--22--22--|
---------------------------------|---------------------------------|
---------------------------------|---------------------------------|


  E   E   E   E   E   E   E   E     E   E   E   E   E   E   E   E   
-----20--20--20--20--20--20--20--|-----20--20--20--20--20--20--20--|
---------------------------------|---------------------------------|
---------------------------------|---------------------------------|
-----22--22--22--22--22--22--22--|-----22--22--22--22--22--22--22--|
---------------------------------|---------------------------------|
---------------------------------|---------------------------------|


  E   E   E   E   E   E   E   E     E   E   E   E   E   E   E   E   
-----20--20--20--20--20--20--20--|-----20--20--20--20--20--20--20--|
---------------------------------|---------------------------------|
---------------------------------|---------------------------------|
-----22--22--22--22--22--22--22--|-----22--22--22--22--22--22--22--|
---------------------------------|---------------------------------|
---------------------------------|---------------------------------|


  E   E   E   E   E   E   E   E     E   E   E   E   E   E   E   E   
-----20--20--20--20--20--20--20--|-----20--20--20--20--20--20--20--|
---------------------------------|---------------------------------|
---------------------------------|---------------------------------|
-----22--22--22--22--22--22--22--|-----22--22--22--22--22--22--22--|
---------------------------------|---------------------------------|
---------------------------------|---------------------------------|


  E   E   E   E   E   E   E   E     E   E   E   E   E   E   E   E   
-----20--20--20--20--20--20--20--|-----20--20--20--20--20--20--20--|
---------------------------------|---------------------------------|
---------------------------------|---------------------------------|
-----22--22--22--22--22--22--22--|-----22--22--22--22--22--22--22--|
---------------------------------|---------------------------------|
---------------------------------|---------------------------------|


  E   E   E   E   E   E   E   E     E   E   E   E   E   E   E   E   
-----20--20--20--20--20--20--20--|-----20--20--20--20--20--20--20--|
---------------------------------|---------------------------------|
---------------------------------|---------------------------------|
-----22--22--22--22--22--22--22--|-----22--22--22--22--22--22--22--|
---------------------------------|---------------------------------|
---------------------------------|---------------------------------|


  E   E   E   E   E   E   E   E     E   E   E   E   E   E   E   E   
-----20--20--20--20--20--20--20--|-----20--20--20--20--20--20--20--|
---------------------------------|---------------------------------|
---------------------------------|---------------------------------|
-----22--22--22--22--22--22--22--|-----22--22--22--22--22--22--22--|
---------------------------------|---------------------------------|
---------------------------------|---------------------------------|


  E   E   E   E   E   E   E   E     E   E   E   E   E   E   E   E   
-----20--20--20--20--20--20--20--|-----20--20--20--20--20--20--20--|
---------------------------------|---------------------------------|
---------------------------------|---------------------------------|
-----22--22--22--22--22--22--22--|-----22--22--22--22--22--22--22--|
---------------------------------|---------------------------------|
---------------------------------|---------------------------------|


  E   E   E   E   E   E   E   E     E   E   E   E   E   E   E   E   
-----20--20--20--20--20--20--20--|-----20--20--20--20--20--20--20--|
---------------------------------|---------------------------------|
---------------------------------|---------------------------------|
-----22--22--22--22--22--22--22--|-----22--22--22--22--22--22--22--|
---------------------------------|---------------------------------|
---------------------------------|---------------------------------|


  E   E   E   E   E   E   E   E     E   E   E   E   E   E   E   E   
-----20--20--20--20--20--20--20--|-----20--20--20--20--20--20--20--|
---------------------------------|---------------------------------|
---------------------------------|---------------------------------|
-----22--22--22--22--22--22--22--|-----22--22--22--22--22--22--22--|
---------------------------------|---------------------------------|
---------------------------------|---------------------------------|


  E   E   E   E   E   E   E   E     E   E   E   E   E   E   E   E   
-----20--20--20--20--20--20--20--|-----20--20--20--20--20--20--20--|
---------------------------------|---------------------------------|
---------------------------------|---------------------------------|
-----22--22--22--22--22--22--22--|-----22--22--22--22--22--22--22--|
---------------------------------|---------------------------------|
---------------------------------|---------------------------------|


  E   E   E   E   E   E   E   E     E   E   E   E   E   E   E   E   
-----20--20--20--20--20--20--20--|-----20--20--20--20--20--20--20--|
---------------------------------|---------------------------------|
---------------------------------|---------------------------------|
-----22--22--22--22--22--22--22--|-----22--22--22--22--22--22--22--|
---------------------------------|---------------------------------|
---------------------------------|---------------------------------|


  E   E   E   E   E   E   E   E     E   E   E   E   E   E   E   E   
-----20--20--20--20--20--20--20--|-----20--20--20--20--20--20--20--|
---------------------------------|---------------------------------|
---------------------------------|---------------------------------|
-----22--22--22--22--22--22--22--|-----22--22--22--22--22--22--22--|
---------------------------------|---------------------------------|
---------------------------------|---------------------------------|


*Muted Guitar

  E  E  E  E  Q    E  E     E  E  Q    E  Q    E     E  E  E  E  Q    E  E   
-------------------------|------------------------|-------------------------|
-------------------------|------------------------|-------------------------|
--------5--5-------5--5--|--------5----5--3----5--|--------5--5-------5--5--|
--------5--5-------5--5--|--------5----5--3----5--|--------5--5-------5--5--|
-----3-------------------|-----3------------------|-----3-------------------|
-------------------------|------------------------|-------------------------|


  E  E  Q    E  Q    E     E  E  E  E  Q    E  E     E  E  Q    E  Q    E   
------------------------|-------------------------|------------------------|
------------------------|-------------------------|------------------------|
--------5----5--3----5--|--------5--5-------5--5--|--------5----5--3----5--|
--------5----5--3----5--|--------5--5-------5--5--|--------5----5--3----5--|
-----3------------------|-----3-------------------|-----3------------------|
------------------------|-------------------------|------------------------|


  E  E  E  E  Q    E  E     E  E  Q    E  Q    E     E  E  E  E  Q    E  E   
-------------------------|------------------------|-------------------------|
-------------------------|------------------------|-------------------------|
--------5--5-------5--5--|--------5----5--3----5--|--------5--5-------5--5--|
--------5--5-------5--5--|--------5----5--3----5--|--------5--5-------5--5--|
-----3-------------------|-----3------------------|-----3-------------------|
-------------------------|------------------------|-------------------------|


  E  E  Q    E  Q    E     E  E  E  E  Q    E  E     E  E  Q    E  Q    E   
------------------------|-------------------------|------------------------|
------------------------|-------------------------|------------------------|
--------5----5--3----5--|--------5--5-------5--5--|--------5----5--3----5--|
--------5----5--3----5--|--------5--5-------5--5--|--------5----5--3----5--|
-----3------------------|-----3-------------------|-----3------------------|
------------------------|-------------------------|------------------------|


  E  E  E  E  Q    E  E     E  E  Q    E  Q    E     E  E  E  E  Q    E  E   
-------------------------|------------------------|-------------------------|
-------------------------|------------------------|-------------------------|
--------5--5-------5--5--|--------5----5--3----5--|--------5--5-------5--5--|
--------5--5-------5--5--|--------5----5--3----5--|--------5--5-------5--5--|
-----3-------------------|-----3------------------|-----3-------------------|
-------------------------|------------------------|-------------------------|


  W                   W                   W                 
-------------------|-------------------|-------------------|
-------------------|-------------------|-------------------|
-------------------|-------------------|-------------------|
-------------------|-------------------|-------------------|
-------------------|-------------------|-------------------|
-------------------|-------------------|-------------------|

*Back at Piano

   E   E   E   E   E   E   E   E      E   E   E   E   E   E   Q      
--18------18--18------20--18------|--18--18------20--18------18----||
------------------18----------18--|----------18----------18--------||
----------------------------------|--------------------------------||
--20--20--20--20------22--20------|--20--20------22--20------20----||
------------------20----------20--|----------20----------20--------||
------18--------------------------|--------------------------------||

Login or Register to remove this ad.

1 comment on Zero Virus Stage 1

awesome,really grateful :) I

5

awesome,really grateful :) I greatly appreciate the effort