Ads

Tidal Makkoeen (Mega Man X5) Guitar Tab

Submitted: Dec 21, 2011 by ChelseaRare (Last updated: Dec 21, 2011)

5
Average: 5 (5 votes)
Download | Listen
Game: Mega Man X5
Composer(s): Naoya Kamisaka, Naoto Tanaka, Takuya Miyawaki
Style: Arrangement, Fingerstyle
Series: Mega Man

This song is also called Duff McWhalen, Bubble Crab (X2)

AutoScroll: Slow | Medium | Fast
Mega Man X5
Duff McWhalen/Tidal Makkoeen
Arranged by Chelsea Intal
Composers - Naoto Tanaka, Naoya Kamisaka, Takuya Miyawaki

OPEN D TUNING: DADF#AD
100 BPM


      S S S S S S S S S S S S    S S S S S S S S S S S S  
D ||--0-----------2-----0-----|--0-----------2-----0-----|
A ||----2---2---2-----2-----2-|----1---1---1-----1-----1-|
F#||------0---0-----0-----0---|------0---0-----0-----0---|
D ||--------------------------|--------------------------|
A ||--------------------------|--------------------------|
D ||--------------------------|--------------------------|


  S S S S S S S S S S S S    S S S S S S S S S S S S S S  
--0-----2-----0-----4---0-|--4-----2-----0-----4---2-0---|
------0-----0-----0---0---|------2-----2-----2-----------|
----0-----0-----0---------|----2-----2-----2-----2-----5-|
--------------------------|------------------------------|
--------------------------|------------------------------|
--------------------------|------------------------------|


  S S S S S S S S S S S S E  S S    S S S S E  S S E.  E.  E   
---------------------------------|----------------------------|
--5-----7-----5-----5---5-7--5---|--5-----4----5-4------------|
---------------------------------|--------4----4-4------------|
------5-----5-----5--------------|------4---------------------|
---------------------------------|----------------------------|
----5-----5-----5-----5--------x-|----4-----x------4---4---x--|


  S S S S S S S S S S S S E  S S    S S S S S S S S S S S S S S S S  
--------------------4---4--------|--------------------------0---2-0-|
--5-----7-----5-----------7--5---|--4-----------2-----4---4-------x-|
---------------------------------|--------4-----------4---4-4---4---|
------5-----5-----5--------------|------4-----4-----4-4---4-4---4---|
---------------------------------|----------------------------------|
----5-----5-----5-----5--------x-|----4-----4-----4-----x-----x-----|


  E  S S S S S S E  S E  S S S    E  S E  S S S E  S E  S E   
-------------------------------|-----------------------------|
-----4-----0-------------------|-----------------------------|
-----------------0-------------|-----------------------------|
---------4------------0----L---|-------0----2----------------|
--2----2---2-2-2-2--2-2--2-x-2-|--4--0-0--0-0-0-0--2-0--L-4--|
---------------------------x---|--7---------------------x-7--|


  E  S E  S E  E  S E  S E     E  S E  S S S E  S E  S E   
----------------------------|-----------------------------|
----------------------------|-------------------2----4----|
----------------------------|-----------------------------|
----------------------------|--0----0----0------x----x-0--|
--2------------4----7----4--|--2--2-2--2-2-2-2----4----5--|
--5--5-5--5-5--7--7-7--7----|--x---------x----------------|


  E  S E  S E  E  S E  S E     E  S E  S S S E  S E  S S S  
----------------------------|--------------------------0---|
-------0--------------------|-------------------2----4-----|
-------0----1--0------------|--------------------------5---|
-----0-x----2--0----2-------|--0----0----0------x----x-----|
--2------------0--0-4--0-4--|--2--2-2--2-2-2-2----4----2-2-|
--5--5-5--5-5--x------------|--x---------x-----------------|


  E  S E  S E  E  S E  S E     E  S E  S S S E  S E  S S S  
----------------------------|------------------------------|
----------------------------|------------------------------|
----------------------------|--0---------------------------|
------------0-------0----2--|--0---------------------------|
--2--2-4-------4--4-x----4--|--2--2-2--2-2-2-2--2-2--2-2-2-|
--5--5-7--5-5--4--4-4--4-4--|--x---------------------------|


  S S S S S S S S S S S S S S S S    S S S S S S S S S S S S S S S S  
----------------------------------|----------------------------------|
----------------------------------|--0---------------2---------------|
--0---------------2---------------|--0---------------2---------------|
--0---------------2---------------|------------------2---------------|
--2-2-2-2-2-2-2-2-2-2-2-2-2-2-2-2-|--2-2-2-2-2-2-2-2-2-2-2-2-2-2-2-2-|
----------------------------------|----------------------------------|


  S S S S S S S S S S S S S S S S    S S S S S S S S S S S S S S S S  
----------------------------------|----------------------------------|
----------------------------------|--0---------------2---------------|
--0---------------2---------------|--0---------------2---------------|
--0---------------2---------------|------------------2---------------|
--2-2-2-2-2-2-2-2-2-2-2-2-2-2-2-2-|--2-2-2-2-2-2-2-2-2-2-2-2-2-2-2-2-|
----------------------------------|----------------------------------|


  S S S S S S S S S S S S    S S S S S S S S S S S S  
--0-----------2-----0-----|--0-----------2-----0-----|
----2---2---2-----2-----2-|----1---1---1-----1-----1-|
------0---0-----0-----0---|------0---0-----0-----0---|
--------------------------|--------------------------|
--2-----------------------|--------------------------|
--------------------------|--------------------------|


  S S S S S S S S S S S S    S S S S S S S S S S S S S S  
--0-----2-----0-----4---0-|--4-----2-----0-----4---2-0---|
------0-----0-----0---0---|------2-----2-----2-----------|
----0-----0-----0---------|----2-----2-----2-----2-----5-|
--------------------------|------------------------------|
--------------------------|------------------------------|
--------------------------|------------------------------|


  S S S S S S S S S S S S E  S S    S S S S E  S S E.  E.  E   
---------------------------------|----------------------------|
--5-----7-----5-----5---5-7--5---|--5-----4----5-4------------|
---------------------------------|--------4----4-4------------|
------5-----5-----5--------------|------4---------------------|
---------------------------------|----------------------------|
----5-----5-----5-----5--------x-|----4-----x------4---4---x--|


                                                               ^   
  S S S S S S S S S S S S E  S S    S S S S S S S S S S S S E  E   
--------------------4---4--------|--------------------------0-----|
--5-----7-----5-----------7--5---|--4-----------2-----4---4----2--|
---------------------------------|--------4-----------4---4-4--0--|
------5-----5-----5--------------|------4-----4-----4-4---4-4--0--|
---------------------------------|-----------------------------2--|
----5-----5-----5-----5--------x-|----4-----4-----4-----x---------|


  ^                  
  W                  
-------------------||
--L----------------||
--L----------------||
--L----------------||
--L----------------||
-------------------||


Duration Legend
---------------
W - whole
H - half
Q - quarter
E - 8th
S - 16th
. - note dotted


Tablature Legend
----------------
L - tied note
x - dead note
Login or Register to remove this ad.

5 comments on Tidal Makkoeen

Great tab!we need more

5

Great tab!we need more fingerstyle megaman

Hey this is a fucking great

5

Hey this is a fucking great arrangement.

Thanks guys. I agree with

Thanks guys.

I agree with more fingerstyle MM. I wanna try more, but shit this was tricky.

Very impressive!

5

Very impressive!

Great arrangement, tricky to

5

Great arrangement, tricky to play!