Ads

Megaman X5 ending credits (Mega Man X5) Guitar Tab

Submitted: Nov 27, 2010 by surreal (Last updated: Oct 04, 2011)

5
Average: 5 (4 votes)
Download | Listen
Game: Mega Man X5
Composer(s): Naoya Kamisaka, Naoto Tanaka, Takuya Miyawaki
Style: Arrangement, Fingerstyle
Series: Mega Man

AutoScroll: Slow | Medium | Fast

Credit Roll from MegamanX5

I spent a feverish 5 hours one warm summer night ages ago arranging this.
I overlooked my arrangement with joy as I wished myself a job well done.
I single self-given pat on the back was delivered as I placed my work of grandeur in my precious "composing central" folder.
I then went to sleep and forgot about it entirely for months. u mad gametabs?
Arranged by Eric Garza

(Capo 5)


     E  E  E  E  E  E  E  E     E  E  E  E  E  E  E  E     E  E  E  E  E  E  E  E     E  E  E  E  E  E  E  E   
E||--1-----------1-----------|--0-----------0-----------|--------------------------|--------------------------|
B||-----0--3--------0--3-----|-----0--1--------0--1-----|--3-----0-----3-----0-----|--1-----0-----1-----0-----|
G||-----------1-----------1--|-----------2-----------2--|-----2-----1-----2-----1--|-----2-----------2--------|
D||--------------------------|--------------------------|--------------------------|-----------2-----------2--|
A||--------------------------|--------------------------|--------------------------|--------------------------|
E||--------------------------|--------------------------|--------------------------|--------------------------|


  E  E  E  E  E  E  E  E     E  E  E  E  E  E  E  E     E  E  E  E  E  E  E  E     E  E  E  E  H         
--------------------------|--------------------------|--------------------------|-----------------------|
--0-----------0-----------|--0-----------0-----------|--------------------------|-----------------------|
--------2-----------2-----|--------2-----------2-----|--2-----------1-----------|-----------------------|
-----3-----0-----3-----0--|-----2-----------2--------|-----0--3-----------0--3--|--0--------------------|
--------------------------|-----------3-----------3--|-----------2-----2--------|-----4--2--4--L--------|
--------------------------|--------------------------|--------------------------|-----------------------|


  ^                                             ^                               ^                          
  E   S  S  S  S  S  S  S  S  S  S  S  S  E     E  S S  S S S S E  S E  S E     E  S S S S Q    E  S S E   
--0------------------------------------------|------------------0------------|----------------------------|
--0h--1p-0h-1p-0h-1p-0h-1p-0h-1p-0h-1p-0h-1--|--------------1--------3--1----|--0----1-0------------------|
--0h--2p-0h-2p-0h-2p-0h-2p-0h-2p-0h-2p-0h-2--|------------2------------------|--0--------0----------------|
--0------------------------------------------|--3----2h-3----------0---------|--2----------0-------0-2----|
--0------------------------------------------|--3--0----------0-3---------0--|--3---------------0------0--|
---------------------------------------------|--1----------------------------|-----0----------------------|


  ^                         v v    ^                            ^                             
  E  S S  S S S S E  S E  S S S    E  S S E  Q    S S S S E     E  S S  S S S S E  S E  S E   
------------------0-------------|-------3----0----L----------|------------------0------------|
--------------1--------3--1-----|--0----3----0----L----------|--------------1--------3--1----|
------------2-------------------|--0-------------------------|------------2------------------|
--2----2h-3-------3--0----------|--2------------------0-2----|--3----2h-3----------0---------|
--3--0----------0-----------0---|--0---------0----L-0-----0--|--3--0----------0-3---------0--|
--5---------------------------0-|-----0---3------------------|--1----------------------------|


  ^                            ^                         v v    ^                               
  E  S S S S Q    E  S S E     E  S S  S S S S E  S E  S S S    E  E  Q    E  S  S  S  S  S  S  
----------------------------|------------------0-------------|--------3----0-------------------|
--0----1-0------------------|--------------1--------3--1-----|--0-----3----0--1p-0h-1p-0h-1p-0-|
--0--------0----------------|------------2-------------------|--0-------------2p-0h-2p-0h-2p-0-|
--2----------0-------0-2----|--2----2h-3-------3--0----------|--2------------------------------|
--3---------------0------0--|--3--0----------0-----------0---|--0----------0-------------------|
-----0----------------------|--5---------------------------0-|-----0--3------------------------|


  E  E  E  E  E  E  E  E     E  S S S S E  E  E  S  S  E     E  E  E  E  E  E  E  E   
--0-----------0-----------|-------------------------------|--0-----------0-----------|
-----0-----3-----0-----3--|--0----1-0------0--------------|-----0-----3-----0-----3--|
--------2--2--------2--2--|--0--------0----------2--------|--------2--2--------2--2--|
--------3-----------3-----|-----2-------0-----2--0h-2p-0--|--------3-----------3-----|
--3--3--------3--3--------|--3----------------0--------0--|--3--3--------3--3--------|
--1-----------1-----------|-----0-------------------------|--1-----------1-----------|


                                     >     >     >   >              >     >     >   >     >      
  E  E  E  E  E  S  S  S  S  S  S    S S S S S S S S E  E  E  E     S S S S S S S S E  E  E  E   
--------3-----0-------------------|--0-----------0---------------|--0-----------0---3-----5-----|
--0-----3-----0--1p-0h-1p-0h-1p-0-|--1-----3-------1-------------|--------3-------3-------------|
--0-----2--------2p-0h-2p-0h-2p-0-|------2---2-------2-----------|------0---0-------------------|
-----2-----0----------------------|----3-------3-----------3-----|----2-------2-----------3-----|
--0-----------0-------------------|--0-----------0------3-----3--|---------------------3-----3--|
-----0----------------------------|--------1---------1-----------|--3-----1-----3---3-----------|


  S S S S S S E  E  E  E  E     S S S S S S E  E  E  S S E     E  E  E  E  E  E  S S S  S  
--7-----8-----7-----------5--|--7-----8-----7---------------|--5-----------------5-7-8-10-|
------3---3------8-----3-----|------3---3------8-----3-5----|--------5--------------------|
----4-------4----------------|----4-------4-----------------|-----5-----5-----5-----------|
-----------------------3-----|-----------------------3------|--3-----------3--------------|
--0-----------0-----3-----3--|--0-----------0-----3------3--|-----------------------------|
--------3--------3-----------|--------3--------3------------|-----------------------------|


   E  E  E   S  S  E  E  E  E     S S S S S S E  E  E  S S E     S S S S S S E  E  E  Q          E  E  E  Q    Q.      
--12--------10-12-10-----------|--8-----7-----3---------------|--7-----8-----7--------5br~----|-----------------------|
-------------------------------|----3-----3------5-----3-5----|----3-----3------8-------------|--5--3-----0-----------|
---------9---------------7-----|------4-----4-----------------|------4-----4------------------|--2-----5--0----0------|
------7---------------7-----7--|-----------------------3------|-----------------------3-------|--2--------0-----------|
---7---------------7-----------|--------0-----------3------3--|--0-----------0-----3----------|--0--------------------|
-------------------------------|--3--------------3------------|--------3--------3-------------|-----------0-----------|


  ^                                                 ^                   
  Q.     E  Q    S S S S    E  E  E  Q    Q.        Q.     E  H         
-------------------------|-----------------------|---------------------|
-------------------0-1-3-|--5--3-----0-----------|---------------------|
--2---------2----2-------|--2-----5--0----0------|--2---------2--------|
--2------2---------------|--2--------0-----------|--2------2-----------|
--4----------------------|--0--------------------|--4------------------|
-------------------------|-----------0-----------|---------------------|


  S  S  S  S  S  S  S  S  S  S  S  S  S  S  S  S    
--------------------------------------------------||
--0h-1p-0h-1p-0h-1p-0h-1p-0h-1p-0h-1p-0h-1p-0h-1h-||
--0h-2p-0h-2p-0h-2p-0h-2p-0h-2p-0h-2p-0h-2p-0h-2h-||
--------------------------------------------------||
--------------------------------------------------||
--------------------------------------------------||


Login or Register to remove this ad.

5 comments on Megaman X5 ending credits

I mad.

5

I mad.

x series should have ended at

x series should have ended at x4
*hides*

It's the truth.

It's the truth.

I disagree

I disagree, X5 was a good game, and so was X8, but 7 and 6 sucked so I see your point

Gametabs's

Gametabs's status:
Mad[X]
Trolled[X]
Told[X]