Ads

Izzy Glow (Mega Man X5) Guitar Tab

Submitted: Sep 28, 2009 by soundsandstuff (Last updated: Feb 06, 2010)

5
Average: 5 (3 votes)
Download | Listen
Game: Mega Man X5
Composer(s): Naoya Kamisaka, Naoto Tanaka, Takuya Miyawaki
Style: Arrangement
Series: Mega Man

This song is also called Shining Hotarunicus Stage

AutoScroll: Slow | Medium | Fast
Mega Man X5 - Izzy Glow Stage
Platform: PSX
Composed & Arranged by: Naoto Tanaka, Naoya Kamisaka, and Takuya Miyawaki

Guitar Tab Created By: soundsandstuff www.youtube.com/user/soundsandstuff
Completed on 9/27/09



E|----------------------------------------| 
B|----------------------------------------| 
G|----------------------------------------| 
D|---------0------1-0------------0--------| 
A|-0-3-0-3----0-------3--0-3-0-3----------| 
E|----------------------------------1--3--| 

E|----------------------------------------|
B|----------------------------------------|
G|----------------------------------------|
D|---------0------1-0------------0--------|
A|-0-3-0-3----0-------3--0-3-0-3----------|
E|----------------------------------1-----|

E|----------------------------------------|
B|----------------------------------------|
G|----------------------------------------|
D|---------0------1-0------------0--------|
A|-0-3-0-3----0-------3--0-3-0-3----------|
E|----------------------------------1--3--|

E|----------------------------------------|
B|----------------------------------------|
G|----------------------------------------|
D|---------0------1-0----1-0---0----------|
A|-0-3-0-3----0-------3------3---3-0------|
E|----------------------------------------|

================================================ A

E|----------------------------------------|
B|---12--8---10---------------------------|
G|-9-------9-----7-7-8-7-5--------5-7-----|
D|-------------------------7--5-7---------|
A|----------------------------------------|
E|----------------------------------------|

E|-----------------------10-11-10-8-------|
B|---12--12----13---10--------------------|
G|-9--------12----------------------------|
D|----------------------------------------|
A|----------------------------------------|
E|----------------------------------------|

E|-15---12--------------------------------|
B|---------15-13-15--17-------------------|
G|----------------------------------------|
D|----------------------------------------|
A|----------------------------------------|
E|----------------------------------------|

=========================================================== B

E|--12------------------------------------|
B|-----15-13-12---------------------------|
G|----------------------------------------|
D|---------------14-----------------------|
A|----------------------------------------|
E|----------------------------------------|

E|-------------11-13-15--16---------------|
B|-13-11-13-14--------------16--11--------|
G|----------------------------------------|
D|----------------------------------------|
A|----------------------------------------|
E|----------------------------------------|

========================================================================= C

E|----12---10-12--------15----------------|
B|-10------------12-13--------------------|
G|----------------------------------------|
D|----------------------------------------|
A|----------------------------------------|
E|----------------------------------------|


E|-15-16-15--13--15-12--------------------|
B|----------------------------------------|
G|----------------------------------------|
D|----------------------------------------|
A|----------------------------------------|
E|----------------------------------------|

========================================================================================== D


E|----------------------------------------|
B|----------------------------------------|
G|-7-8-7-5-7-5---5------------------------|
D|-------------7---7-5-7-5----------------|
A|-------------------------7--------------|
E|----------------------------------------|


E|----------------------------------------|
B|----------------------------------------|
G|-------5--------------------------------|
D|-7-5-7----7-----------------------------|
A|----------------------------------------|
E|----------------------------------------|


E|----------------------------------------|
B|----------------------8-----------------|
G|-------5---5-7--9-7-9-------------------|
D|-7-5-7---7------------------------------|
A|----------------------------------------|
E|----------------------------------------|


E|---------8------------------------------|
B|-10-8-10-----10-------------------------|
G|----------------------------------------|
D|----------------------------------------|
A|----------------------------------------|
E|----------------------------------------|
======                                =======
E|----------------------------------------|
B|----------------------------------------|
G|-7-8-7-5-7-5---5------------------------|
D|-------------7---7-5-7-5----------------|
A|-------------------------7--------------|
E|----------------------------------------|


E|----------------------------------------|
B|----------------------------------------|
G|-------5--------------------------------|
D|-7-5-7----7-----------------------------|
A|----------------------------------------|
E|----------------------------------------|


E|----------------------------------------|
B|----------------------8-----------------|
G|-------5---5-7--9-7-9-------------------|
D|-7-5-7---7------------------------------|
A|----------------------------------------|
E|----------------------------------------|


E|---------8------------------------------|
B|-10-8-10-----10-------------------------|
G|----------------------------------------|
D|----------------------------------------|
A|----------------------------------------|
E|----------------------------------------|


E|-12-12-12-12-12-12-12-12-12-12-12-12-12-12-12-12-| 
B|-------------------------------------------------|
G|-------------------------------------------------|
D|-------------------------------------------------|
A|-------------------------------------------------|
E|-------------------------------------------------|

================================================================================================================= 
Repeat 



Notes: 

- This tab is not be entirely accurate to the original music.  It was made according to how I played the song in my youtube video (I noticed sometime later after putting it up that some parts were off by a few notes, particularly the second bar under section A, Oops).  Hopefully this helps people out there who want to learn how to play.

Thanks for watching!


Login or Register to remove this ad.