Dynamo (Mega Man X5) Guitar Tab

Submitted: Sep 18, 2012 by LynyrdSkynyrd4

5
Average: 5 (5 votes)
Download | Listen
Game: Mega Man X5
Composer(s): Naoya Kamisaka, Naoto Tanaka, Takuya Miyawaki
Style: Artificial harmonics, Transcription, Tremolo, Trill
Series: Mega Man

AutoScroll: Slow | Medium | Fast
h - hammer on
p - pull off
/ - slide
tr - trill
< > - harmonic
TP - tremolo pick


 (Keyboard)
e|-10------10----8------8----10------10----15
B|-8-------8-----8------8----8-------8-----15
G|-------------------------------------------
D|-------------------------------------------
A|-------------------------------------------
E|-------------------------------------------

 (Rhythm guitar)
e|--------------
B|--------------
G|--------------
D|----------3tr5
A|-5~-----------
E|-3~-----------


  
  (Keyboard)
  -----------------------------------------------------------
  -11---------11--------------------------------11--10-----10
  ------12---------12---10h12----------12p10-----------12----
  -------------------------------13----------13--------------
  -----------------------------------------------------------
  -----------------------------------------------------------

  -----------------------------------------------------------
  -11---------11---13---11----------------------11--10-----10
  ------12-----------------12----------12p10-----------12----
  -------------------------------13----------13--------------
  -----------------------------------------------------------
  -----------------------------------------------------------

  -11--10----------------------------13--11--10------10--------------------------
  ----------13--11--13--11-10--------------------13------13--11-10----13-------12
  -----------------------------12-------------------------------------12-------12
  -------------------------------------------------------------------------------
  -------------------------------------------------------------------------------
  -------------------------------------------------------------------------------
 
  (Rhythm guitar)
  -----------------------------------------------
  -----------------------------------------------
  -3----0-----3----0-----------------------------
  -3----0-----3----0----3--5-----1-----3-----1--3
  ----------------------3--5-----1-----3-----1--3
  -----------------------------------------------

  -----------------------------------------------------------------------
  -----------------------------------------------------------------------
  -3----0-----3----5----3--0---------------------------------------------
  -3----0-----3----5----3--0-----1-----3-----1--3----1---------3---------
  -------------------------------1-----3-----1--3----1---------3--------5
  ----------------------------------------------------------------------3


  
  ---------------------------------------
  ---------------------------------------
  -/16-----/15-----/14----12--14---12----
  -------------------------------------14
  ---------------------------------------
  ---------------------------------------

 
   -Keep in mind this was played on a keyboard. *For majestic shredders*
  
  -------15h17p15----18p17p15h17p15-------15--------------------------------------------
  -15h17----------17----------------17p15----17p15------15------------------------------
  ------------------------------------------------16--14---16p15p14----14---------------
  --------------------------------------------------17--------------17----17p14h17p14---
  ------------------------------------------------------------------------------------17
  --------------------------------------------------------------------------------------

  ----------------------------------------------15h17h18h19/22-24-24
  -------------------------12h15p12h15/17p15h17---------------------
  -------------------12h14------------------------------------------
  -------------12h14------------------------------------------------
  -------12h14------------------------------------------------------
  -12h15------------------------------------------------------------

  ---------------------------------------------
  ---------------------------------------------
  -------------<0>--------------------<0>------
  ------------------<0>---<2>---<0>---------<0>
  -<2>---<1>-----------------------------------
  ---------------------------------------------

  ------------------------------
  ------------------------------
  ------------------------------
  ----------------------------/5
  -3---4---3---1---3---1--------
  -------------------------3----

  -3TP--1--3TP-----6-5-3TP-----6p5p3--------------------------------------
  -----------------------------------6p5p3--------------------------------
  -----------------------------------------6p5p3--------------------------
  -----------------------------------------------5p3p0-5p3p0--------------
  -----------------------------------------------------------4p3p1-4p3p1--
  -----------------------------------------------------------------------3

  ------------------------------------------1---3
  ----------------------------1---3---------1---3
  --------------2---4---------2---4--------------
  --------------3---5----------------------------
  -3---5-----------------------------------------
  -1---3-----------------------------------------
Login or Register to remove this ad.

3 comments on Dynamo

Very Cool!

5

Very Cool!

Thanks, one of my favs themes

5

Thanks, one of my favs themes of X5, incredible Job.

Wow, incredible, thanks!

5

Wow, incredible, thanks!