Ads

Zero's Theme (Mega Man X4) Guitar Tab

Submitted: Jan 24, 2012 by JordanVS

5
Average: 5 (2 votes)
Download | Listen
Game: Mega Man X4
Composer(s): Toshihiko Horiyama
Style: 2 or more instruments, Transcription
Series: Mega Man

AutoScroll: Slow | Medium | Fast
Zero's Theme                                   
Mega Man X4
Toshihiko Horiyama

Lead Guitar

     W                   E.  S S S S S Q    S S S S  
E||-------------------|-----------------------------|
B||-------------------|-----------------------------|
G||-------------------|--1---1-1-1-1-1-1----1-1-1-1-|
D||-------------------|-----------------------------|
A||-------------------|-----------------------------|
E||-------------------|-----------------------------|


  E.  S S S S S Q    S S S S    E.  S S S S S E.  S S S S S  
-----------------------------|------------------------------|
-----------------------------|------------------------------|
--3---3-3-3-3-3-3----3-3-3-3-|--5---5-5-5-5-5-5---5-5-5-5-5-|
-----------------------------|------------------------------|
-----------------------------|------------------------------|
-----------------------------|------------------------------|


  E  S S S S S S S S S S E  E     H        H           E.  E.  H        E   
-------------------------------|--------------------|----------------------|
-------------------------------|--------------------|------6---8-----------|
--5--5-5-5-5-5-5-5-5-5-5-5-----|--5--------7--------|--8-------------------|
-------------------------------|--------------------|----------------------|
-------------------------------|--------------------|----------------------|
-------------------------------|--------------------|----------------------|


  H        H           Q.     S S H           H        H         
--------------------|--8------6------------|--------------------|
-----------6--------|-----------9-8--------|--------------------|
--8-----------------|----------------------|--5--------7--------|
--------------------|----------------------|--------------------|
--------------------|----------------------|--------------------|
--------------------|----------------------|--------------------|


  E.  E.  H        E     Q.     S S Q.     S S    H        H         
----------------------|------------------------|--------------------|
----------6-----------|---------6--------------|--------------------|
--7---8---------------|--8--------8-7------8-7-|--5--------3--------|
----------------------|------------------------|--------------------|
----------------------|------------------------|--------------------|
----------------------|------------------------|--------------------|


    Q     Q     Q     Q        Q.      H        E     Q     Q     Q     Q     
|--------------10----11----|--13-------------------|-------------------13----|
|--------13----------------|----------13-----------|-------15----16----------|
|*-------------------------|-----------------------|-------------------------|
|*-------------------------|-----------------------|-------------------------|
|--------------------------|-----------------------|-------------------------|
|--------------------------|-----------------------|-------------------------|


   Q.      Q.      Q       Q     Q     Q     Q     
--16------15------13----|-------------10----11----|
------------------------|-------13----------------|
------------------------|-------------------------|
------------------------|-------------------------|
------------------------|-------------------------|
------------------------|-------------------------|


   Q    S.  T  Q.      E   E      W                 
--13-------12-11------13--15--|--15----------------|
------------------------------|--------------------|
------------------------------|--------------------|
------------------------------|--------------------|
------------------------------|--------------------|
------------------------------|--------------------|


   H         T  T  T  T  T  T  T  T  T  T  T  T  T  T T T  
--15--------14-13-12-11-----------------------------------|
------------------------15-14-13-12-12--------------------|
---------------------------------------14-13-12-11-10-9-9-|
----------------------------------------------------------|
----------------------------------------------------------|
----------------------------------------------------------|


   H         H            Q     E.   H        S     H         H         
--11--------11--------|--11----13---15----------|--15--------15--------|
----------------------|-------------------------|----------------------|
----------------------|-------------------------|----------------------|
----------------------|-------------------------|----------------------|
----------------------|-------------------------|----------------------|
----------------------|-------------------------|----------------------|


   Q     E.   H        S     H         H            Q     E.   H        S  
--15----18---20----------|----------------------|-------------------------|
-------------------------|--16--------16--------|--16----18---20----------|
-------------------------|----------------------|-------------------------|
-------------------------|----------------------|-------------------------|
-------------------------|----------------------|-------------------------|
-------------------------|----------------------|-------------------------|


   E.   E.   E   Q.      S  S     W                 
-------20---18--22------20-22-|--23----------------|
--20--------------------------|--------------------|
------------------------------|--------------------|
------------------------------|--------------------|
------------------------------|--------------------|
------------------------------|--------------------|


   Q     S  S  S  S  S  S  S  S  S  S  S  S  
-----------------------------------------15-|
--20----18-16-------------15-16-18-16-18----|
--------------19-17-15-17-------------------|
--------------------------------------------|
--------------------------------------------|
--------------------------------------------|


   S  S  S  S  S  S  S  S  T  T  T  T  S  S  S  S  S  S  
--16-18-20-18-16-18-16-15-13-15-13-12-11----10-11-13-11-|
-----------------------------------------12-------------|
--------------------------------------------------------|
--------------------------------------------------------|
--------------------------------------------------------|
--------------------------------------------------------|


   E   S  S  E   S  S  S  S  S  S  S  S  S  S  
--15--13----15--13----15-16-15-13-13-15-13----|
---------16--------16----------------------16-|
----------------------------------------------|
----------------------------------------------|
----------------------------------------------|
----------------------------------------------|


   T  T  T  T  S  S  S  S  S  S  S  S  S  S  S  S  S  S  
--------------------------------------------------------|
--15-16-15-13-------------------------------------------|
--------------15-14-12----------------------------------|
-----------------------15-13-12----------------------15-|
--------------------------------12-14-15-17-18-17-18----|
--------------------------------------------------------|


   Q     Q     Q     T  T  T  T  S  S  
--20----22----23----23-24-23-20-18-16-|
--------------------------------------|
--------------------------------------|
--------------------------------------|
--------------------------------------|
--------------------------------------|


   S  S  S  S  S  S  S  S  T  T  T  T  S  S  S  S  S  S  
--16-18-20-18-16-18-16-15-13-15-13-12-11----10-11-13-11-|
-----------------------------------------12-------------|
--------------------------------------------------------|
--------------------------------------------------------|
--------------------------------------------------------|
--------------------------------------------------------|


   Q     Q     Q     Q     
--11----13----15----16----|
--------------------------|
--------------------------|
--------------------------|
--------------------------|
--------------------------|


   S  S  S  S  S  S  S  S  T  T  T  T  T  T  T  T  T  T  T  T  T S.    
--18-20-18-20-18-20-18-20-18-17-15-----------------------------------||
-----------------------------------18-17-15--------------------------||
--------------------------------------------17-16-14----14-16-17----*||
-----------------------------------------------------17-------------*||
---------------------------------------------------------------------||
---------------------------------------------------------------------||


Lead One Octave Lower



                         PM  PM PM PM PM PM PM   PM PM PM PM  
     W                   E.  S  S  S  S  S  Q    S  S  S  S   
E||-------------------|--------------------------------------|
B||-------------------|--------------------------------------|
G||-------------------|--------------------------------------|
D||-------------------|--6---6--6--6--6--6--6----6--6--6--6--|
A||-------------------|--6---6--6--6--6--6--6----6--6--6--6--|
E||-------------------|--4---4--4--4--4--4--4----4--4--4--4--|


  PM  PM PM PM PM PM PM   PM PM PM PM    PM  PM PM PM PM PM PM  PM PM PM PM PM  
  E.  S  S  S  S  S  Q    S  S  S  S     E.  S  S  S  S  S  E.  S  S  S  S  S   
--------------------------------------|----------------------------------------|
--------------------------------------|----------------------------------------|
--3---3--3--3--3--3--3----3--3--3--3--|--5---5--5--5--5--5--5---5--5--5--5--5--|
--3---3--3--3--3--3--3----3--3--3--3--|--5---5--5--5--5--5--5---5--5--5--5--5--|
--1---1--1--1--1--1--1----1--1--1--1--|--3---3--3--3--3--3--3---3--3--3--3--3--|
--------------------------------------|----------------------------------------|


  PM PM PM PM PM PM PM PM PM PM PM PM                          
  E  S  S  S  S  S  S  S  S  S  S  E  E     H        H         
-----------------------------------------|--------------------|
-----------------------------------------|--------------------|
--5--5--5--5--5--5--5--5--5--5--5--5-----|--------------------|
--5--5--5--5--5--5--5--5--5--5--5--5-----|--------------------|
--3--3--3--3--3--3--3--3--3--3--3--3-----|--3--------5--------|
-----------------------------------------|--------------------|


  E.  E.  H        E     H        H           Q.     S S H         
----------------------|--------------------|----------------------|
----------------------|--------------------|----------------------|
----------------------|--------------------|--5------3-1-0--------|
------3---5-----------|--1--------3--------|----------------------|
--6-------------------|--------------------|----------------------|
----------------------|--------------------|----------------------|


  H        H           E.  E.  H        E     Q.     S S Q.     S S  
--------------------|----------------------|------------------------|
--------------------|----------------------|------------------------|
--------------------|----------------------|------------------------|
--------------------|----------3-----------|--1------3-1-0------1-0-|
--3--------5--------|--5---6---------------|------------------------|
--------------------|----------------------|------------------------|


  H        H             Q    Q    Q    Q       Q.     H        E   
--------------------||-----------------------|---------------------|
--------------------||-----------------------|--6------------------|
--------------------||*-------5----7----8----|---------5-----------|
--------------------||*----------------------|---------------------|
--3--------1--------||-----------------------|---------------------|
--------------------||-----------------------|---------------------|


  Q    Q    Q    Q       Q.     Q.     Q       Q    Q    Q    Q     
----------------------|---------------------|----------------------|
-----------------6----|--9------8------6----|----------------------|
-------7----8---------|---------------------|-------5----7----8----|
----------------------|---------------------|----------------------|
----------------------|---------------------|----------------------|
----------------------|---------------------|----------------------|


  Q    S. T  Q.     E  E     W                 
--------------------------|-------------------|
--6-------5p-4------6--8--|--8----------------|
--------------------------|-------------------|
--------------------------|-------------------|
--------------------------|-------------------|
--------------------------|-------------------|


  H        T T T T T T T T T T T T T T T T    H        H         
-------------------------------------------|--------------------|
--8--------7-6-5---------------------------|--------------------|
-----------------8-7-6-5-4-4---------------|--5--------5--------|
-----------------------------7-6-5---------|--------------------|
-----------------------------------9-8-7-7-|--------------------|
-------------------------------------------|--------------------|


  Q    E.  H        S    H        H           Q    E.  H        S  
----------------------|--------------------|----------------------|
----------------------|--------------------|-------6---8----------|
--5----7---8----------|--8--------8--------|--8-------------------|
----------------------|--------------------|----------------------|
----------------------|--------------------|----------------------|
----------------------|--------------------|----------------------|


  H        H           Q    E.  H        S    E.  E.  E  Q.     S S  
--------------------|----------------------|-------------6------4-6-|
--------------------|----------------------|------8---6-------------|
--5--------5--------|--5----7---8----------|--8---------------------|
--------------------|----------------------|------------------------|
--------------------|----------------------|------------------------|
--------------------|----------------------|------------------------|


  H.           Q       Q    S S S S S S S S S S S S  
--8-----------------|-------------------------------|
--------------------|--8----6---------------6---6-8-|
--------------------|---------8-7-5---5-7-8---8-----|
--------------------|---------------8---------------|
--------------------|-------------------------------|
--------------------|-------------------------------|


  S S S S S S S S T T T T S S S S S S    E  S S E  S S S S S S S S S S  
----6-8-6---6-------------------------|--------------------------------|
--9-------9---9-8-6-8-6-5---------6---|--8--6---8--6---8-9-8-6-6-8-6---|
--------------------------8---7-8---8-|-------8------8---------------8-|
----------------------------9---------|--------------------------------|
--------------------------------------|--------------------------------|
--------------------------------------|--------------------------------|


  T T T T S S S S S S S S S S S S S S    Q     Q     Q     T  T  T  T  S  S  
--------------------------------------|--8----10----11----11-12-11----------|
--------------------------------------|----------------------------13-11----|
--7-8-7-5-----------------------------|----------------------------------13-|
----------8-7-5-----------------------|-------------------------------------|
----------------8-6-5-------5-6-5-6-8-|-------------------------------------|
----------------------5-7-8-----------|-------------------------------------|


   S  S  S  S  S  S  S  S  T  T  T T S S S S S S    Q    Q    Q    Q     
-------------------------------------------------|----------------------|
-----11-13-11----11--------------------------6---|-------6----8----9----|
--13----------13----13-12-10-12-10-9-8---7-8---8-|--8-------------------|
---------------------------------------9---------|----------------------|
-------------------------------------------------|----------------------|
-------------------------------------------------|----------------------|


  S  S  S  S  S  S  S  S T T T T T T T T T T T T T S.    
--6h-8p-6h-8p-6h-8p-6h-8-6-5---------------------------||
-----------------------------8-6-5---------------------||
-----------------------------------7-5-4-------4-5----*||
-----------------------------------------7-5-7--------*||
-------------------------------------------------------||
-------------------------------------------------------||


Rhythm Guitar



     W                   E.  S S S S S Q    S S S S  
E||-------------------|-----------------------------|
B||-------------------|-----------------------------|
G||-------------------|-----------------------------|
D||-------------------|-----------------------------|
A||-------------------|--3---3-3-3-3-3-3----3-3-3-3-|
E||-------------------|-----------------------------|


  E.  S S S S S Q    S S S S    E.  S S S S S E.  S S S S S  
-----------------------------|------------------------------|
-----------------------------|------------------------------|
-----------------------------|------------------------------|
--0---0-0-0-0-0-0----0-0-0-0-|--1---1-1-1-1-1-1---1-1-1-1-1-|
-----------------------------|------------------------------|
-----------------------------|------------------------------|


  E  S S S S S S S S S S E  E     E  S S S S E  E  S S S S E   
-------------------------------|------------------------------|
-------------------------------|------------------------------|
-------------------------------|------------------------------|
--1--1-1-1-1-1-1-1-1-1-1-1-----|--1--1-1-1-1-1--1--1-1-1-1-1--|
-------------------------------|--3--3-3-3-3-3--3--3-3-3-3-3--|
-------------------------------|------------------------------|


  E  S S S S E  E  S S S S E     E  S S S S E  E  S S S S E   
------------------------------|------------------------------|
------------------------------|------------------------------|
------------------------------|------------------------------|
--0--0-0-0-0-0--0--0-0-0-0-0--|--1--1-1-1-1-1--1--1-1-1-1-1--|
--1--1-1-1-1-1--1--1-1-1-1-1--|--3--3-3-3-3-3--3--3-3-3-3-3--|
------------------------------|------------------------------|


  E  S S S S E  E  S S S S E     E  S S S S E  E  S S S S E   
------------------------------|------------------------------|
------------------------------|------------------------------|
--0--0-0-0-0-0--0--0-0-0-0-0--|------------------------------|
--0--0-0-0-0-0--0--0-0-0-0-0--|--1--1-1-1-1-1--1--1-1-1-1-1--|
------------------------------|--3--3-3-3-3-3--3--3-3-3-3-3--|
------------------------------|------------------------------|


  E  S S S S E  E  S S S S E     E  S S S S E  E  S S S S E   
------------------------------|------------------------------|
------------------------------|------------------------------|
------------------------------|------------------------------|
--0--0-0-0-0-0--0--0-0-0-0-0--|--1--1-1-1-1-1--1--1-1-1-1-1--|
--1--1-1-1-1-1--1--1-1-1-1-1--|--1--1-1-1-1-1--1--1-1-1-1-1--|
------------------------------|------------------------------|


  E  S S S S E  E  S S S S E       E  E  E  E  E  E  E  E   
------------------------------||---------------------------|
------------------------------||---------------------------|
------------------------------||*--------------------------|
--3--3-3-3-3-3--3--3-3-3-3-3--||*--1-----1-----1-----1-----|
--5--5-5-5-5-5--5--5-5-5-5-5--||---3-----3-----3-----3-----|
------------------------------||------4-----4-----4-----4--|


  E  E  E  E  E  E  E  E     E  E  E  E  E  E  E  E   
--------------------------|--------------------------|
--------------------------|--------------------------|
--------------------------|--------------------------|
--1-----1-----1-----1-----|--0-----0-----0-----0-----|
--3-----3-----3-----3-----|-----1-----1-----1-----1--|
-----4-----4-----4-----4--|--1--1--1--1--1--1--1--1--|


  E  E  E  E  E  E  E  E     E  E  E  E  E  E  E  E   
--------------------------|--------------------------|
--------------------------|--------------------------|
--------------------------|--------------------------|
--0-----0-----0-----0-----|--1-----1-----1-----1-----|
-----1-----1-----1-----1--|--3-----3-----3-----3-----|
--1--1--1--1--1--1--1--1--|-----4-----4-----4-----4--|


  E  E  E  E  E  E  E  E     Q    S. T E  E  E  T T T T T T T T  
--------------------------|--8----L--6-8--8--8--7-7-5-4-3-2-1-0-|
--------------------------|-------------------------------------|
--------------------------|-------------------------------------|
--1-----1-----1-----1-----|-------------------------------------|
--3-----3-----3-----3-----|-------------------------------------|
-----4-----4-----4-----4--|-------------------------------------|


  W                   E  S S S S S S E  S S S S S S  
-------------------|--------------------------------|
-------------------|--------------------------------|
-------------------|--------------------------------|
-------------------|--------------------------------|
-------------------|--3--3-3-3-3-3-3-3--3-3-3-3-3-3-|
-------------------|--3--3-3-3-3-3-3-3--3-3-3-3-3-3-|


  E  S S S S S S E  S S S S S S    E  S S S S S S E  S S S S S S  
--------------------------------|--------------------------------|
--------------------------------|--------------------------------|
--------------------------------|--------------------------------|
--------------------------------|--------------------------------|
--3--3-3-3-3-3-3-3--3-3-3-3-3-3-|--3--3-3-3-3-3-3-3--3-3-3-3-3-3-|
--3--3-3-3-3-3-3-3--3-3-3-3-3-3-|--3--3-3-3-3-3-3-3--3-3-3-3-3-3-|


  E  S S S S S S E  S S S S S S    E  S S S S S S E  S S S S S S  
--------------------------------|--------------------------------|
--------------------------------|--------------------------------|
--------------------------------|--------------------------------|
--------------------------------|--------------------------------|
--3--3-3-3-3-3-3-3--3-3-3-3-3-3-|--3--3-3-3-3-3-3-3--3-3-3-3-3-3-|
--3--3-3-3-3-3-3-3--3-3-3-3-3-3-|--3--3-3-3-3-3-3-3--3-3-3-3-3-3-|


  E  S S S S S S E  S S S S S S    E  S S S S S S E  S S S S S S  
--------------------------------|--------------------------------|
--------------------------------|--------------------------------|
--------------------------------|--------------------------------|
--------------------------------|--------------------------------|
--3--3-3-3-3-3-3-3--3-3-3-3-3-3-|--3--3-3-3-3-3-3-3--3-3-3-3-3-3-|
--3--3-3-3-3-3-3-3--3-3-3-3-3-3-|--3--3-3-3-3-3-3-3--3-3-3-3-3-3-|


  E  S S S S S S E  S S S E.     E  S S S S S S E  S S S S S S  
------------------------------|--------------------------------|
------------------------------|--------------------------------|
------------------------------|--------------------------------|
------------------------------|--1--1-1-1-1-1-1-1--1-1-1-1-1-1-|
--3--3-3-3-3-3-3-3--3-3-3-----|--3--3-3-3-3-3-3-3--3-3-3-3-3-3-|
--3--3-3-3-3-3-3-3--3-3-3-----|--------------------------------|


  E  S S S S S S E  S S S S S S    E  S S S S S S E  S S S S S S  
--------------------------------|--------------------------------|
--------------------------------|--------------------------------|
--------------------------------|--------------------------------|
--1--1-1-1-1-1-1-1--1-1-1-1-1-1-|--1--1-1-1-1-1-1-1--1-1-1-1-1-1-|
--3--3-3-3-3-3-3-3--3-3-3-3-3-3-|--3--3-3-3-3-3-3-3--3-3-3-3-3-3-|
--------------------------------|--------------------------------|


  E  S S S S S S E  S S S S S S    E  S S S S E  E  S S S S E   
--------------------------------|------------------------------|
--------------------------------|------------------------------|
--------------------------------|------------------------------|
--1--1-1-1-1-1-1-1--1-1-1-1-1-1-|--1--1-1-1-1-1--1--1-1-1-1-1--|
--3--3-3-3-3-3-3-3--3-3-3-3-3-3-|--3--3-3-3-3-3--3--3-3-3-3-3--|
--------------------------------|------------------------------|


  E  S S S S E  E  S S S S E     E  S S S S E  E  S S S S E   
------------------------------|------------------------------|
------------------------------|------------------------------|
------------------------------|------------------------------|
--0--0-0-0-0-0--0--0-0-0-0-0--|--1--1-1-1-1-1--1--1-1-1-1-1--|
--1--1-1-1-1-1--1--1-1-1-1-1--|--1--1-1-1-1-1--1--1-1-1-1-1--|
------------------------------|------------------------------|


  E  S S S S E  E  S S S S E     
-------------------------------||
-------------------------------||
------------------------------*||
--3--3-3-3-3-3--3--3-3-3-3-3--*||
--5--5-5-5-5-5--5--5-5-5-5-5---||
-------------------------------||



Bass



     W                   Q    S S S S Q    S S S S  
G||-------------------|----------------------------|
D||-------------------|----------------------------|
A||-------------------|----------------------------|
E||-------------------|--4----4-4-4-4-4----4-4-4-4-|


  Q    S S S S Q    S S S S    Q    S S S S Q    S S S S  
----------------------------|----------------------------|
----------------------------|----------------------------|
--1----1-1-1-1-1----1-1-1-1-|--3----3-3-3-3-3----3-3-3-3-|
----------------------------|----------------------------|


  Q    S S S S S S S S Q       E.  S S S S S E.  S S S S S  
----------------------------|------------------------------|
----------------------------|------------------------------|
--3----3-3-3-3-3-3-3-3-3----|--3---3-3-3-3-3-3---3-3-3-3-3-|
----------------------------|------------------------------|


  E.  S S S S S E.  S S S S S    E.  S S S S S E.  S S S S S  
------------------------------|------------------------------|
------------------------------|------------------------------|
--1---1-1-1-1-1-1---1-1-1-1-1-|--3---3-3-3-3-3-3---3-3-3-3-3-|
------------------------------|------------------------------|


  E.  S S S S S E.  S S S S S    E.  S S S S S E.  S S S S S  
------------------------------|------------------------------|
------------------------------|------------------------------|
--1---1-1-1-1-1-1---1-1-1-1-1-|--3---3-3-3-3-3-3---3-3-3-3-3-|
------------------------------|------------------------------|


  E.  S S S S S E.  S S S S S    E.  S S S S S E.  S S S S S  
------------------------------|------------------------------|
--0---0-0-0-0-0-0---0-0-0-0-0-|--1---1-1-1-1-1-1---1-1-1-1-1-|
------------------------------|------------------------------|
------------------------------|------------------------------|


  E.  S S S S S E.  S S S S S      E  S S E  S S E  S S E  S S  
------------------------------||-------------------------------|
--0---0-0-0-0-0-0---0-0-0-0-0-||*------------------------------|
------------------------------||*------------------------------|
------------------------------||---4--4-4-4--4-4-4--4-4-4--4-4-|


  E  S S E  S S E  S S E  S S    E  S S E  S S E  S S E  S S  
------------------------------|------------------------------|
------------------------------|------------------------------|
------------------------------|--1--1-1-1--1-1-1--1-1-1--1-1-|
--4--4-4-4--4-4-4--4-4-4--4-4-|------------------------------|


  E  S S E  S S E  S S E  S S    S S S S S S S S S S S S S S S S  
------------------------------|----------------------------------|
------------------------------|----------------------------------|
--1--1-1-1--1-1-1--1-1-1--1-1-|----------------------------------|
------------------------------|--4-4-4-4-4-4-4-4-4-4-4-4-4-4-4-4-|


  S S S S S S S S S S S S S S S S    S S S S S S S S S S S S S S S S  
----------------------------------|----------------------------------|
----------------------------------|----------------------------------|
----------------------------------|--3-3-3-3-3-3-3-3-3-3-3-3-3-3-3-3-|
--4-4-4-4-4-4-4-4-4-4-4-4-4-4-4-4-|----------------------------------|


  S S S S S S S S S S S S S S S S    S S S S S S S S S S S S S S S S  
----------------------------------|----------------------------------|
----------------------------------|----------------------------------|
--3-3-3-3-3-3-3-3-3-3-3-3-3-3-3-3-|--3-3-3-3-3-3-3-3-3-3-3-3-3-3-3-3-|
----------------------------------|----------------------------------|


  S S S S S S S S S S S S S S S S    S S S S S S S S S S S S S S S S  
----------------------------------|----------------------------------|
----------------------------------|----------------------------------|
--3-3-3-3-3-3-3-3-3-3-3-3-3-3-3-3-|--3-3-3-3-3-3-3-3-3-3-3-3-3-3-3-3-|
----------------------------------|----------------------------------|


  S S S S S S S S S S S S S S S S    S S S S S S S S S S S S S S S S  
----------------------------------|----------------------------------|
----------------------------------|----------------------------------|
--3-3-3-3-3-3-3-3-3-3-3-3-3-3-3-3-|--3-3-3-3-3-3-3-3-3-3-3-3-3-3-3-3-|
----------------------------------|----------------------------------|


  S S S S S S S S S S S S S S S S    S S S S S S S S S S S S S S S S  
----------------------------------|----------------------------------|
----------------------------------|----------------------------------|
--3-3-3-3-3-3-3-3-3-3-3-3-3-3-3-3-|--3-3-3-3-3-3-3-3-3-3-3-3-3-3-3-3-|
----------------------------------|----------------------------------|


  S S S S S S S S S S S S S E.     E  S S S S S S E  S S S S S S  
--------------------------------|--------------------------------|
--------------------------------|--------------------------------|
--3-3-3-3-3-3-3-3-3-3-3-3-3-----|--3--3-3-3-3-3-3-3--3-3-3-3-3-3-|
--------------------------------|--------------------------------|


  E  S S S S S S E  S S S S S S    E  S S S S S S E  S S S S S S  
--------------------------------|--------------------------------|
--------------------------------|--------------------------------|
--1--1-1-1-1-1-1-1--1-1-1-1-1-1-|--3--3-3-3-3-3-3-3--3-3-3-3-3-3-|
--------------------------------|--------------------------------|


  E  S S S S S S E  S S S S S S    E  S S S S S S E  S S S S S S  
--------------------------------|--------------------------------|
--------------------------------|--------------------------------|
--1--1-1-1-1-1-1-1--1-1-1-1-1-1-|--3--3-3-3-3-3-3-3--3-3-3-3-3-3-|
--------------------------------|--------------------------------|


  E  S S S S S S E  S S S S S S    E  S S S S S S E  S S S S S S  
--------------------------------|--------------------------------|
--0--0-0-0-0-0-0-0--0-0-0-0-0-0-|--1--1-1-1-1-1-1-1--1-1-1-1-1-1-|
--------------------------------|--------------------------------|
--------------------------------|--------------------------------|


  E  S S S S S S E  S S S S S S    
---------------------------------||
--0--0-0-0-0-0-0-0--0-0-0-0-0-0-*||
--------------------------------*||
---------------------------------||
Login or Register to remove this ad.