Ads

Opening Stage X (Mega Man X4) Guitar Tab

Submitted: Aug 03, 2021 by Omnicide (Last updated: Aug 09, 2021)

5
Average: 5 (1 vote)
Download | Listen
Game: Mega Man X4
Composer(s): Toshihiko Horiyama
Style: Arrangement, Fingerstyle
Series: Mega Man

AutoScroll: Slow | Medium | Fast
Opening Stage X      
Mega Man X4                        
Composed by Toshihiko Horiyama
Arranged by William Geesdorf


D#ADGBE Tuning (Standard tuning but with the 6th string tuned down a half step to Eb\D#)
(Capo 1)


       E  E  E  E  H           E  E  E  E  H           E  E  E  E  H         
E ||---------------2--------|--------------2--------|-----------------------|
B ||---3--------3-----------|--2--------2-----------|--0--------0--7--------|
G ||*--------4--------------|--------2--------------|-----------------------|
D ||*-----4-----------------|-----2-----------------|--------6--------------|
A ||---2--------------------|--0--------------------|-----7-----------------|
D#||------------------------|-----------------------|--5--------------------|


  E  E  Q    E  E  Q          E  E  Q.     Q    E     E  E  Q.     Q    E   
-------------------------||------------------------|---------------2-------|
--0----------2-----------||------------------------|--------0-----------0--|
--------0----------2----*||*--------4------2----4--|-----------------------|
-----0----------2-------*||*-----4-----------------|-----2-----------------|
-------------0-----------||---2--------------------|--0--------------------|
--4----------------------||------------------------|-----------------------|


  E  E  Q.     Q    E     E  E  Q    H             W                 
-----------------------|-----------------------||-------------------|
--------0-----------0--|-----------------------||-------------------|
---------------7-------|--------0----2--------*||--L----------------|
-----------------------|-----0-------2--------*||--L----------------|
-----7-----------------|-------------0---------||--L----------------|
--5--------------------|--4--------------------||-------------------|


    H           E.  E.  E     E  E  E  E  E.  E.  E     E  E  E  Q.     Q     
|------------|--3---2---0--|--------------2---0------|-----------------------|
|------------|-------------|----------------------3--|-----------------------|
|*--L--------|-------------|--4--------4-------------|--2--------2------7----|
|*--L--------|-------------|--------4----------------|--------2--------------|
|---L--------|-------------|-----2-------------------|-----0-----------------|
|------------|-------------|-------------------------|-----------------------|


  E  E  E  E  Q.     E     E  E  E  E  E.  E.  E     E  E  E  E  E.  E.  E   
------------------------|--------------3---2---0--|--------------2---0------|
---------------------3--|--3----------------------|----------------------3--|
--------------6---------|-----------0-------------|--4--------4-------------|
--6--------6------------|--------0----------------|--------4----------------|
--------7---------------|--------------0----------|-----2-------------------|
-----5------------------|-----4-------------------|-------------------------|


  E  E  E  Q.     Q       E  E  E  E  Q.     E     E  E  E  E  E  E  E  E   
-----------------------|------------------------|--------------------------|
-----------------------|---------------------3--|--3-----------2-----------|
--2--------2------7----|--------------6---------|-----------0-----------2--|
--------2--------------|--6--------6------------|--------0-----------2-----|
-----0-----------------|--------7---------------|-----------------0--------|
-----------------------|-----5------------------|-----4--------------------|


  E  E  E  Q.     E  E     E  E  E  Q.     E  E     E  E  E  Q.     E  E   
---------------------0--|--2---------------------|------------------------|
------------------3-----|------------------8--7--|--5---------------7--5--|
--4--------4------------|-----------2------------|------------------------|
--------4---------------|--------2---------------|-----------6------------|
-----2------------------|-----0------------------|--------7---------------|
------------------------|------------------------|-----5------------------|


  E  E  E  E  E  E  E  E     E  E  H        E  E     E  E  E  Q.     E  E   
--------------------------|--------------------0--|--2---------------------|
--3-----------2-----------|-----------------3-----|------------------8--7--|
-----------0-----------2--|--------4--------------|-----------2------------|
--------0-----------2-----|-----4-----------------|--------2---------------|
-----------------0--------|--2--------------------|-----0------------------|
-----4--------------------|-----------------------|------------------------|


  E  E  E  E  H           Q    Q    Q    Q       E  E  Q.     Q    E   
--7-----------5--------|--3----2----0---------|-----------------------|
-----------0-----------|--0----0----2----3----|-----------------------|
-----------------------|----------------------|--------4------2----4--|
--------4--------------|----------------------|-----4-----------------|
-----------------------|------------0---------|--2--------------------|
-----5-----------------|--4-------------------|-----------------------|


  E  E  Q.     Q    E     E  E  Q.     Q    E     E  E  Q    H         
---------------2-------|-----------------------|----------------------|
--------0-----------0--|--------0-----------0--|----------------------|
-----------------------|---------------7-------|--------0----2--------|
-----2-----------------|-----------------------|-----0-------2--------|
--0--------------------|-----7-----------------|-------------0--------|
-----------------------|--5--------------------|--4-------------------|


  E  E  Q.     Q    E     E  E  Q.     Q    E     E  E  Q.     Q    E   
-----------------------|---------------2-------|-----------------------|
-----------------------|--------0-----------0--|--------0-----------0--|
--------4------2----4--|-----------------------|---------------7-------|
-----4-----------------|-----2-----------------|-----------------------|
--2--------------------|--0--------------------|-----7-----------------|
-----------------------|-----------------------|--5--------------------|


  E  E  Q    H              E  E  Q.     Q    E     E  E  Q.     Q    E   
-----------------------||------------------------|---------------2-------|
-----------------------||------------------------|--------0-----------0--|
--------0----2--------*||*--------4------2----4--|-----------------------|
-----0-------2--------*||*-----4-----------------|-----2-----------------|
-------------0---------||---2--------------------|--0--------------------|
--4--------------------||------------------------|-----------------------|


  E  E  Q.     Q    E     E  E  Q    H             W                 
-----------------------|-----------------------||-------------------|
--------0-----------0--|-----------------------||-------------------|
---------------7-------|--------0----2--------*||--L----------------|
-----------------------|-----0-------2--------*||--L----------------|
-----7-----------------|-------------0---------||--L----------------|
--5--------------------|--4--------------------||-------------------|


                                        ^                              
  H           E.  E.  E     E  E  E  E  H           W                  
-----------|--3---2---0--|--------------2--------|--L----------------||
-----------|-------------|--------------3--------|--L----------------||
--L--------|-------------|--4--------4--4--------|--L----------------||
--L--------|-------------|--------4-----4--------|--L----------------||
--L--------|-------------|-----2--------2--------|--L----------------||
-----------|-------------|-----------------------|-------------------||




Duration Legend
---------------
W - whole
H - half
Q - quarter
E - 8th
S - 16th
T - 32nd
X - 64th
. - note dotted
|-n-|  - n-tuplets


Tablature Legend
----------------
L - tied note
^ - brush up
Login or Register to remove this ad.

2 comments on Opening Stage X

"Download\Listen" button error

The "Download" and "Listen" buttons aren't working anymore. Is there a solution for this? It's been happening with the latest tabs.

Well, i'm gonna leave the YT

5

Well, i'm gonna leave the YT link here for anyone who wants to listen to this TAB being played through a VST instrument: https://www.youtube.com/watch?v=v0SBbMJ0oDk