Login or Register to remove this ad.

Ending (Mega Man X3) Bass/Guitar Tab

Submitted: Oct 22, 2012 by hslesperance

0
Download | Listen
Game: Mega Man X3
Composer(s): Toshihiko Horiyama
Style: 2 or more instruments, Transcription
Series: Mega Man

AutoScroll: Slow | Medium | Fast
Ending
Mega Man X3
Composed by Kinuyo Yamashita
Tabbed by hslesperance
10/22/12

Guitars - Standard Tuning
Bass - Drop C Tuning (CADG)




  Guitar 1
   Q.    E  +H        Q.    Q.    Q     Q.    E  +H        E  E  E  E  +E   E  E  E
|------------------|-----------------|------------------|----------------------------|
|-11----11-(11)----|-11----12----14--|------------------|----------------------------|
|------------------|-----------------|-11----13-(13)----|-11-------------------------|
|------------------|-----------------|------------------|----14-13-11-(11)----11-----|
|------------------|-----------------|------------------|------------------14----14--|
|------------------|-----------------|------------------|----------------------------|


   Q.    E  +H        E  E  E  E  +E   E  E  E    W                +W
|------------------|----------11-(11)----------|----------------|---------------------|
|-11----11-(11)----|-11-12-14------------------|----------------|---------------------|
|------------------|------------------11-11-11-|-13-------------|-(13)----------------|
|------------------|---------------------------|----------------|---------------------|
|------------------|---------------------------|----------------|---------------------|
|------------------|---------------------------|----------------|---------------------|
|
| Guitar 2
|  W                  W                           H.       E  E    +Q    E  Q   E  Q
|------------------|---------------------------|----------------|---------------------|
|------------------|---------------------------|----------------|---------------------|
|------------------|---------------------------|----------------|---------------------|
|------------------|---------------------------|----------14-13-|-(13)--13-11-----11--|
|------------------|---------------------------|----------------|--------------14-----|
|------------------|---------------------------|----------------|---------------------|


   Q.    Q.    E  E    Q   E  Q.    E  E    Q.    E  +H        E  E  E  Q   E  Q
|-------------------|--------------------|------------------|---------------------|
|-------------------|--------------------|------------------|---------------------|
|-------------------|-----11----------11-|-11---------------|---------------------|
|-14----13----11----|-11-----13----14----|------------------|-------11------------|
|----------------14-|--------------------|-------14-(14)----|-13-14----14--13-14--|
|-------------------|--------------------|------------------|---------------------|


   Q.    Q.    E  E    Q   E  Q.    E  E    W           E  E  E  Q   Q.
|-------------------|--------------------|-----------|--------------------|
|-------------------|--------------------|-----------|-12-11--------11----|
|-------------------|-----11----------11-|-13--------|-------13-11--------|
|-14----13----11----|-11-----13----14----|-----------|--------------------|
|----------------14-|--------------------|-----------|--------------------|
|-------------------|--------------------|-----------|--------------------|


   Q   Q.    E  E  E    Q   E  Q.    E  E    Q   Q.    E  E  E    Q   Q   Q   Q
|--------------------|--------------------|--------------------|-----------------|
|-12--12-------------|-14--11-11----11-12-|-12--12----11-------|---------11--14--|
|-----------------11-|--------------------|--------------13-11-|-11--11----------|
|-----------13-14----|--------------------|--------------------|-----------------|
|--------------------|--------------------|--------------------|-----------------|
|--------------------|--------------------|--------------------|-----------------|


   Q   Q.    E  E  E    Q   E  Q.    Q     Q   Q.    E  E  E    Q   Q   Q   Q
|--------------------|-----14-11----11--|-11--11----11-12-14-|-16--14----------|
|-12--12----12-14-12-|-14---------------|--------------------|---------11--14--|
|--------------------|------------------|--------------------|-----------------|
|--------------------|------------------|--------------------|-----------------|
|--------------------|------------------|--------------------|-----------------|
|--------------------|------------------|--------------------|-----------------|


   Q.    E  +H        Q.    Q.    Q     Q.    E  +H        E  E  E  E  +E   E  E  E
|------------------|-----------------|------------------|---------------------------|
|-11----11-(11)----|-11----12----14--|------------------|---------------------------|
|------------------|-----------------|-11----13-(13)----|-11------------------------|
|------------------|-----------------|------------------|----14-13-11-(11)----11----|
|------------------|-----------------|------------------|------------------14----14-|
|------------------|-----------------|------------------|---------------------------|


   Q.    E  +H        E  E  E  E  +E   E  E  E    W                +W
|------------------|----------11-(11)----------|----------------|---------------------|
|-11----11-(11)----|-11-12-14------------------|----------------|---------------------|
|------------------|------------------11-11-11-|-13-------------|-(13)----------------|
|------------------|---------------------------|----------------|---------------------|
|------------------|---------------------------|----------------|---------------------|
|------------------|---------------------------|----------------|---------------------|
|
| Guitar 2
|  W                  W                           H.       E  E    +Q    E  Q   E  Q
|------------------|---------------------------|----------------|---------------------|
|------------------|---------------------------|----------------|---------------------|
|------------------|---------------------------|----------------|---------------------|
|------------------|---------------------------|----------14-13-|-(13)--13-11-----11--|
|------------------|---------------------------|----------------|--------------14-----|
|------------------|---------------------------|----------------|---------------------|


   Q.    Q.    E  E    Q   E  Q.    E  E    Q.    E  +H        E  E  E  Q   E  Q
|-------------------|--------------------|------------------|---------------------|
|-------------------|--------------------|------------------|---------------------|
|-------------------|-----11----------11-|-11---------------|---------------------|
|-14----13----11----|-11-----13----14----|------------------|-------11------------|
|----------------14-|--------------------|-------14-(14)----|-13-14----14--13-14--|
|-------------------|--------------------|------------------|---------------------|


   Q.    Q.    E  E    Q   E  Q.    E  E    W           E  E  E  Q   Q.
|-------------------|--------------------|-----------|--------------------|
|-------------------|--------------------|-----------|-12-11--------11----|
|-------------------|-----11----------11-|-13--------|-------13-11--------|
|-14----13----11----|-11-----13----14----|-----------|--------------------|
|----------------14-|--------------------|-----------|--------------------|
|-------------------|--------------------|-----------|--------------------|


   Q   Q.    E  E  E    Q   E  Q.    E  E    Q   Q.    E  E  E    Q   Q   Q   Q
|--------------------|--------------------|--------------------|-----------------|
|-12--12-------------|-14--11-11----11-12-|-12--12----11-------|---------11--14--|
|-----------------11-|--------------------|--------------13-11-|-11--11----------|
|-----------13-14----|--------------------|--------------------|-----------------|
|--------------------|--------------------|--------------------|-----------------|
|--------------------|--------------------|--------------------|-----------------|


   Q   Q.    E  E  E    Q   E  Q.    Q
|--------------------|-----14-11----11--*|
|-12--12----12-14-12-|-14---------------*|
|--------------------|------------------*|
|--------------------|------------------*|
|--------------------|------------------*|
|--------------------|------------------*|




Guitar 3

0:59 - 4x

   S   S  S  E.  S  S   S   E.  S  S  S  S    S   S  S  E.  S   S  S  E.  S  S  S  S
|------------------------------------------|-----------------------------------------|
|-12--12-11-12--12-12--11--12--12-12-11-12-|-12--12-11-12--12--12-11-12--12-12-11-12-|
|------------------------------------------|-----------------------------------------|
|------------------------------------------|-----------------------------------------|
|------------------------------------------|-----------------------------------------|
|------------------------------------------|-----------------------------------------|




Bass

   H.       +E  E   H.      +E  E   H.      +E  E   Q.   E +H
|-----------------|---------------|---------------|---------------|
|-----------------|---------------|---------------|---------------|
|-----------------|---------------|---------------|---------------|
|-11-------(11)-6-|-8-------(8)-6-|-4-------(4)-4-|-1----6-(6)----|


   H.       +E  E   H.      +E  E   W          W
|-----------------|---------------|----------|------|
|-----------------|---------------|----------|------|
|-----------------|---------------|----------|------|
|-11-------(11)-6-|-8-------(8)-8-|-4--------|------|


   H.       +E   E   H.      +E  E   H.      +E  E   Q.    E  +H
|------------------|---------------|---------------|-----------------|
|------------------|---------------|---------------|-----------------|
|------------------|---------------|---------------|-----------------|
|-11-------(11)-11-|-8-------(8)-8-|-4-------(4)-4-|-6----10-(10)----|


   H.       +E   E   H.      +E  E   H.      +E  E   Q.   Q  Q.
|------------------|---------------|---------------|--------------|
|------------------|---------------|---------------|--------------|
|------------------|---------------|---------------|--------------|
|-11-------(11)-11-|-8-------(8)-8-|-4-------(4)-4-|-6----6--6----|


  Q.   E H      Q.   E Q.   E   Q.   E H      Q.   E Q  Q
|-------------|---------------|-------------|--------------|
|-------------|---------------|-------------|--------------|
|-------------|---------------|-------------|--------------|
|-8----8-8----|-3----3-3----3-|-4----4-4----|-6----6-7--7--|


  Q.   E H      Q.   E Q.   E   Q.   E H      H.      Q
|-------------|---------------|-------------|------------|
|-------------|---------------|-------------|------------|
|-------------|---------------|-------------|------------|
|-8----8-8----|-3----3-3----3-|-4----4-4----|-6----------|


   Q.    E  Q.   E   Q.   E Q.   E   Q.   E Q.   E   Q  E Q  E E E
|------------------|---------------|---------------|---------------|
|------------------|---------------|---------------|---------------|
|------------------|---------------|---------------|---------------|
|-11----11-11----6-|-8----8-8----8-|-4----4-4----4-|-1--1-6--6-6-6-|


   Q.    E  Q.   E   Q.   E Q.   E   Q.   E Q.   E   W
|------------------|---------------|---------------|------|
|------------------|---------------|---------------|------|
|------------------|---------------|---------------|------|
|-11----11-11----6-|-8----8-8----8-|-4----4-4------|------|


   Q.    E  H      Q.   E Q.   E   Q.   E H      Q.    E  +H
|----------------|---------------|-------------|-----------------|
|----------------|---------------|-------------|-----------------|
|----------------|---------------|-------------|-----------------|
|-11----11-11----|-8----8-8----8-|-4----4-4----|-6----10-(10)----|


   Q.    E  H      Q.   E Q.   E   Q.   E H      Q.   Q  E E E
|----------------|---------------|-------------|---------------|
|----------------|---------------|-------------|---------------|
|----------------|---------------|-------------|---------------|
|-11----11-11----|-8----8-8----8-|-4----4-4----|-6----6--6-6-6-|


  Q.   E H      Q.   E Q.   E   Q.   E H      Q.   E Q  Q
|-------------|---------------|-------------|--------------|
|-------------|---------------|-------------|--------------|
|-------------|---------------|-------------|--------------|
|-8----8-8----|-3----3-3----3-|-4----4-4----|-6----6-7--7--|


  Q.   E H      Q.   E Q.   E
|-------------|---------------*|
|-------------|---------------*|
|-------------|---------------*|
|-8----8-8----|-3----3-3----3-*|

W - whole
H - half
Q - quarter
E - 8th
S - 16th
+ - note tied to previous
. - note dotted
Login or Register to remove this ad.