Ads

Sigma Stage 1 (Mega Man X2) Guitar Tab

Submitted: Nov 24, 2015 by Gigawowski (Last updated: Feb 27, 2016)

5
Average: 5 (2 votes)
Download | Listen
Game: Mega Man X2
Composer(s): Yuki Iwai
Style: Alternate picking, Transcription
Series: Mega Man

AutoScroll: Slow | Medium | Fast
Song Title: Sigma Stage 1
Game Name: Mega Man X2
Composer: Yuki Iwai
Tabbed by: Gigawowski
Date tab was made: 11/19/2015


(/) Slide Up  (\) Slide Down  (h) Hammer On  (p) Pull Off  (b) Bend (r) Release (v) Vibrato

Intro (x2)

E|-------------9--14----------12------10----------9----------------
B|---------12---------14--14------12------10--10-------------------
G|-----11--------------------------------------------11--9------9--
D|----------------------------------------------------------11-----
A|-----------------------------------------------------------------
E|-----------------------------------------------------------------

Part 1:

E|--9---------------------------------------------------------------9------9--
B|-----12--10--12--9--10--9------9-----10--9--10--9------9--10--12-----12-----
G|---------------------------11-----9----------------11-----------------------
D|----------------------------------------------------------------------------
A|----------------------------------------------------------------------------
E|----------------------------------------------------------------------------

Part 2:

E|--9------9------9--12---------------------------------9-----/12----------------
B|-----12-----10---------12p10--9-----10--9----------------12------9--10--9--10--
G|---------------------------------9---------9------11---------------------------
D|----------------------------------------------12-------------------------------
A|-------------------------------------------------------------------------------
E|-------------------------------------------------------------------------------

Outtro:

E|------------------------------------------------------------/14--12--9--10--
B|-----------------------/14--12--10--10--10--12--/14--12--10-----------------
G|--11--9--------------9------------------------------------------------------
D|---------12--12--12---------------------------------------------------------
A|----------------------------------------------------------------------------
E|----------------------------------------------------------------------------
Login or Register to remove this ad.