Ads

Counter Hunter Stage 1 (Mega Man X2) Guitar Tab

Submitted: Jan 31, 2010 by FireM

0
Download | Listen
Game: Mega Man X2
Composer(s): Yuki Iwai
Style: Alternate picking, Transcription
Series: Mega Man

AutoScroll: Slow | Medium | Fast
Counter Hunter Stage 1
Mega Man X2
Yuki Iwai
Tabbed by FireM
01/28/10


e---9-7-5-7-4-5-4---4---5-4-5-4---4--5-7-9-7-9-------------
B-----------------7---5---------7-------------------------
G---------------------------------------------------------
D---------------------------------------------------------
A---------------------------------------------------------
E---------------------------------------------------------

e---9-7-9--5-5-9-12--7-5-4-----5-4-----5-9-7-12-4-5-4-5---
B--------------------------5-------5-3--------------------
G---------------------------------------------------------
D---------------------------------------------------------
A---------------------------------------------------------
E---------------------------------------------------------

e---2-0-------0-2-0-------0-------5-4-0-2-----------------
B-------3-3-3-------3-3-3---2-0---------------------------
G-------------------------------2-------------------------
D---------------------------------------------------------
A---------------------------------------------------------
E---------------------------------------------------------
Login or Register to remove this ad.

3 comments on Counter Hunter Stage 1

Nice job. You beat me to

Nice job. You beat me to tabbing it lol. One thing though...

Here's how to play that fast intro riff:

e-----------------------------------
B-------7---------------------------
G-----6---6-6-9---7-----6-----------
D---9-----------9---7-7---6---------
A-9-------------------------7-5-7---
E-----------------------------------

lol

oh ok thanks

hey shouldn't that be added

hey shouldn't that be added to the tab? well its small enough to read the reply but meh ^^.