Login or Register to remove this ad.

Staff Roll (Mega Man X) Guitar Tab

Submitted: Aug 10, 2009 by hslesperance (Last updated: Feb 14, 2011)

0
Download | Listen
Game: Mega Man X
Composer(s): Toshihiko Horiyama, Setsuo Yamamoto, Yuki Iwai, Yuko Takehara
Style: Transcription
Series: Mega Man

AutoScroll: Slow | Medium | Fast
Staff Roll
Mega Man X
Composed by Setsuo Yamamoto,Makoto Tomozawa,Yuki Iwai,Yuko Takehara,and Toshihiko Horiyama
Tabbed by hslesperance
8/10/09

Standard Tuning


e---12h13--11------------11------------------------------
B--------------11-12--13-----13-11-----11----------------
G-----------------------------------13-----13-12---------
D-------------------------------------------------13-----
A--------------------------------------------------------
E--------------------------------------------------------

e---12h13--11------------11--11-13---15-16--15-16--------
B--------------11-12--13---------------------------------
G--------------------------------------------------17----
D--------------------------------------------------------
A--------------------------------------------------------
E--------------------------------------------------------

e-------------16----16-18--19-18--16-15--16----15--------
B---17h18--18----18-------------------------------16--17-
G--------------------------------------------------------
D--------------------------------------------------------
A--------------------------------------------------------
E--------------------------------------------------------

e---------------------------16-18-15-15------------------
B---17h18-17h18------17-18-------------------------------
G----------------17----------------------17-17--15-------
D--------------------------------------------------18----
A--------------------------------------------------------
E--------------------------------------------------------

e-------------------------------21--20-------------------
B-------------18--------------------------20--21----18---
G--------------------------------------------------------
D---15---------------------------------------------------
A------18--19--------------------------------------------
E--------------------------------------------------------

e-------18--21--20---------------------------------------
B---19--------------21--18----18--------21--20------18---
G-----------------------------------------------20-------
D--------------------------------------------------------
A--------------------------------------------------------
E--------------------------------------------------------

e-------------------------------------------------20-----
B---------------------------------------------18---------
G---18----------------------------15--18--17-------------
D-------20--------------------16-------------------------
A-----------20-------------------------------------------
E--------------------------------------------------------

e---16--16--16--16--15--------------------------15-------
B-----------------------18--16--16--16--16--18-----------
G---------------------------------------------------17---
D--------------------------------------------------------
A--------------------------------------------------------
E--------------------------------------------------------

e-----------18--16--15--16--15------------------16--16---
B-------------------------------16--18-------------------
G---17--17------------------------------17---------------
D-------------------------------------------18-----------
A--------------------------------------------------------
E--------------------------------------------------------

e---16--16--18--20--18--18--15--15------15--20--18--16---
B-----------------------------------16-------------------
G--------------------------------------------------------
D--------------------------------------------------------
A--------------------------------------------------------
E--------------------------------------------------------

e---15------15--20-------------------16-18-20----18-16---
B-------16----------20------------20---------------------
G-----------------------20--17---------------------------
D--------------------------------------------------------
A--------------------------------------------------------
E--------------------------------------------------------

e---20----18-16-20--23--20--18-16-15----20----18-16-20---
B--------------------------------------------------------
G--------------------------------------------------------
D--------------------------------------------------------
A--------------------------------------------------------
E--------------------------------------------------------

e---18-15-16--15------18--16--20-------------------------
B-----------------------------------18----18-16----------
G-----------------17----------------------------15-------
D--------------------------------------------------------
A--------------------------------------------------------
E--------------------------------------------------------

e---16--18---------------------18----20-------------20---
B-----------16--------18-20-21----21-------18------------
G---------------17----------------------------20-17------
D--------------------------------------------------------
A--------------------------------------------------------
E--------------------------------------------------------

h - hammer on
Login or Register to remove this ad.