Login or Register to remove this ad.

Ending (Mega Man X) Bass/Guitar Tab

Submitted: Aug 10, 2009 by hslesperance (Last updated: Feb 14, 2011)

5
Average: 5 (1 vote)
Download | Listen
Game: Mega Man X
Composer(s): Toshihiko Horiyama, Setsuo Yamamoto, Yuki Iwai, Yuko Takehara
Style: 2 or more instruments, Transcription
Series: Mega Man

AutoScroll: Slow | Medium | Fast
Ending
Mega Man X
Composed by Setsuo Yamamoto,Makoto Tomozawa,Yuki Iwai,Yuko Takehara,and Toshihiko Horiyama
Tabbed by hslesperance
8/9/09

Standard Tuning


Guitar 1 - Melody

e---10----------------10-8-10------------------------------------
B------------------------------11-8-------------8-10-11--10--11--
G----------------------------------------------------------------
D----------------------------------------------------------------
A----------------------------------------------------------------
E----------------------------------------------------------------

e---8---------------------8----------------------8---------------
B-----10--------10---11------8-----10-----11-------11-10----10---
G-------------------------------7------7-------7---------10------
D----------------------------------------------------------------
A----------------------------------------------------------------
E----------------------------------------------------------------

e------------------------------------------8---------------------
B---11-8------------------------8--10--11------11-10-------------
G----------------------------------------------------------------
D----------------------------------------------------------------
A----------------------------------------------------------------
E----------------------------------------------------------------

e-----------------------8------------------8---------------------
B---8-----10-----11-------11-10----10---11----10-----------------
G------7------7-------7---------10----------------10-------------
D----------------------------------------------------------------
A----------------------------------------------------------------
E----------------------------------------------------------------

e--------------------------------------------------10-10---8-8---
B---------------------------11----13-10--------------------------
G---10--12--10-12--10--12----------------------------------------
D----------------------------------------------------------------
A----------------------------------------------------------------
E----------------------------------------------------------------

e----------------------------------------------------------------
B---11----------11-10-11------------10-11--10-----10-------------
G-------------------------------12------------12------10---12----
D----------------------------------------------------------------
A----------------------------------------------------------------
E----------------------------------------------------------------

e----------------------------------------------------------------
B------10-11-13--10------8/10--------11-13-10-----------------10-
G---12---------------10------------------------------11---12-----
D----------------------------------------------------------------
A----------------------------------------------------------------
E----------------------------------------------------------------

e----------------------------------------------------------------
B----------10-11-10--11-13--11-10----10-11--10---------------11--
G---12--12------------------------12-----------10---12---12------
D----------------------------------------------------------------
A----------------------------------------------------------------
E----------------------------------------------------------------

e--------------------------------------------10------------------
B------11/13--11-----11-10----10---11-13--13----10---------------
G---12-----------12--------12------------------------------------
D----------------------------------------------------------------
A----------------------------------------------------------------
E----------------------------------------------------------------

e--------------------------8-------------------------------------
B---8------------8-10-11-8-----11-8----------------10------------
G----------------------------------------------------------------
D----------------------------------------------------------------
A----------------------------------------------------------------
E----------------------------------------------------------------

e------------8----10-10--------------------------8-----10--------
B---11-10-11-----------------------11-10-8---------11-----11-----
G------------------------------------------7-10------------------
D----------------------------------------------------------------
A----------------------------------------------------------------
E----------------------------------------------------------------

e----------------------------------------------------------------
B-----------------------8--------10------------------11-10-8-----
G---10-8-7---------7-10--------------------10--------------------
D----------10-8-10-----------------------------------------------
A----------------------------------------------------------------
E----------------------------------------------------------------

e----------------------------------------------------------------
B---11-10-8--------------11--10--8------------7--8--11--10--8----
G----------------------------------------------------------------
D----------------------------------------------------------------
A----------------------------------------------------------------
E----------------------------------------------------------------


Guitar 2 - Harmony

e---3----------------1-------------------------------------------
B-----------------------4----------------3--1----------------3---
G----------------------------------------------------------------
D----------------------------------------------------------------
A----------------------------------------------------------------
E----------------------------------------------------------------

e---3----------------1-------------------------------------------
B-----------------------4----------------3--1----------------3---
G----------------------------------------------------------------
D----------------------------------------------------------------
A----------------------------------------------------------------
E----------------------------------------------------------------

0:47
e---3------------------------------------------------------------
B--------------------4----------------1----------------3---------
G----------------------------------------------------------------
D----------------------------------------------------------------
A----------------------------------------------------------------
E----------------------------------------------------------------

e---------------------11-----------------------------------------
B---11---------------------------------13----------------10------
G----------------------------------------------------------------
D----------------------------------------------------------------
A----------------------------------------------------------------
E----------------------------------------------------------------

e---------------15------------------13--------------------13-15--
B---11----10----------------------------16-----------------------
G----------------------------------------------------------------
D----------------------------------------------------------------
A----------------------------------------------------------------
E----------------------------------------------------------------

e---------------------------------------------15-13-15-----------
B---13----------------16----15-----------------------------------
G----------------------------------------------------------------
D----------------------------------------------------------------
A----------------------------------------------------------------
E----------------------------------------------------------------

e---17--18-15----------------17--18-20--------17--------18-17----
B-------------------------------------------------------------20-
G----------------------------------------------------------------
D----------------------------------------------------------------
A----------------------------------------------------------------
E----------------------------------------------------------------

e---18-17-------------------18-17---------------------14----15---
B---------20----------------------20-----------------------------
G----------------------------------------------------------------
D----------------------------------------------------------------
A----------------------------------------------------------------
E----------------------------------------------------------------


Guitar 3 - Rhythm

e------10----10----10----10----10----10----10----10---|
B---------11----------11----------11----------11------|
G---12----------12----------12----------12------------|
D-----------------------------------------------------|
A-----------------------------------------------------|
E-----------------------------------------------------|
                                                      |     
e-----10----10---10----10---10----10---10----10-------|
B--------11---------11---------11---------11----------|
G---8----------8----------8----------8----------------|
D-----------------------------------------------------|
A-----------------------------------------------------|
E-----------------------------------------------------|
                                                      | Play 6 times
e-----8----8---8----8---8----8---8----8---------------|
B---8---11---8---11---8---11---8---11-----------------|
G-----------------------------------------------------|
D-----------------------------------------------------|
A-----------------------------------------------------|
E-----------------------------------------------------|
                                                      |
e------10----10----10----10----10----10----10----10---|
B---10----13----10----13----10----13----10----13------|
G-----------------------------------------------------|
D-----------------------------------------------------|
A-----------------------------------------------------|
E-----------------------------------------------------|

e------10-------10-------10-------10-------10---------
B---------11-------11-------11-------11-------11------
G---12-------12-------12-------12-------12-------12---
D-----------------------------------------------------
A-----------------------------------------------------
E-----------------------------------------------------

e------11-------11-------11-------11-------11---------
B---------13-------13-------13-------13-------13------
G---12-------12-------12-------12-------12-------12---
D-----------------------------------------------------
A-----------------------------------------------------
E-----------------------------------------------------

e------8-------8-------8-------8-------8-------8----10
B--------10------10------10------10------10-----------
G---10------10------10------10------10------10--------
D-----------------------------------------------------
A-----------------------------------------------------
E-----------------------------------------------------

e------10-------10-------10-------10-------10---------
B---------11-------11-------11-------11-------11------
G---12-------12-------12-------12-------12-------12---
D-----------------------------------------------------
A-----------------------------------------------------
E-----------------------------------------------------

e------11-------11-------11-------11-------11---------
B---------13-------13-------13-------13-------13------
G---12-------12-------12-------12-------12-------12---
D-----------------------------------------------------
A-----------------------------------------------------
E-----------------------------------------------------

e------8-------8-----8----8-------8-----8-------------
B--------10------10---------10------------8-----8-----
G---10------10---------10------10---10------8-----8---
D---------------------------------------------8-----8-
A-----------------------------------------------------
E-----------------------------------------------------

e-----------------------------------------------------
B---8-----8-----8-----8-----8-----8-----8-----8-------
G-----8-----8-----8-----6-----6-----6-----6-----6-----
D-------8-----8-----8-----8-----8-----8-----8-----8---
A-----------------------------------------------------
E-----------------------------------------------------

e---------------------------------6-5-----------------
B---8-----------8----8--------7-8-----3---------------
G-----8-------8----8---8----8---------3---------------
D-------10---------------10---------------------------
A----------10-----------------------------------------
E-----------------------------------------------------


Bass

G---0------------------------------------------------------------
D--------------------3--1----------------0-------------------0---
A-------------------------------------------3--------------------
E----------------------------------------------------------------

G---0------------------------------------------------------------
D--------------------3--1----------------0-------------------0---
A-------------------------------------------3------------1-3-----
E----------------------------------------------------------------

G-------0---2--0-------------------------------------------------
D---4---------------------------3--1----------------0------------
A------------------------------------------------------3---------
E----------------------------------------------------------------

G----------------2-5-2-3-2-0---0--0--0--0--0--0--0---------------
D---0------------------------3----------------------3--1--1--1---
A----------------------------------------------------------------
E----------------------------------------------------------------

G-------------------------------------------------------------0--
D---1--1--1--1--0--------------------------0--0--0--0--0-4-------
A------------------3--3--3--3--3--3--3-1-3-----------------------
E----------------------------------------------------------------

G---2---0--0--0--0--0--0--0-3--0-5--5--5--5--5--5--5-3--0--------
D---------------------------------------------------------3--3---
A----------------------------------------------------------------
E----------------------------------------------------------------

G----------------------8----7--------2-0-----0--0--0--0--0--0--0-
D---3--3--3--3--3-7--8-------------------3-3---------------------
A----------------------------------------------------------------
E----------------------------------------------------------------


G---3--0-5--5--5--5--5--5--5-3--0--------------------------------
D---------------------------------3--3--3--3--0--0--0-0--0-1--1--
A----------------------------------------------------------------
E----------------------------------------------------------------

G----------------------------------------------------------------
D---1--1--1--1--1--1---------------------------------------------
A---------------------4--4--4--4--4--4--4--4--3--3--3--3--0--0---
E----------------------------------------------------------------

G----------------------------------------------------------------
D----------------------------------------------------------------
A---1----3-------------------------------------------------------
E-------------3--------------------------------------------------

/ - slide up
Login or Register to remove this ad.

1 comment on Ending

Hell to the ya

5

FLippin awesome tab :D