Ads

Wind Man (Mega Man 6) Guitar Tab

Submitted: May 23, 2009 by Brainsick Fungus

0
Download | Listen
Game: Mega Man 6
Composer(s): Yuko Kadota
Style: Transcription
Series: Mega Man

AutoScroll: Slow | Medium | Fast
Wind Man
By Yuko Takehara
Mega Man VI
Tabbed by Brainsick fungus
5/23/09




e-6-10-6-----6--4-8-4-----4--2-6-2-----2--6---4-8-11----------------------------
B--------6-6----------4-4----------2-2------4-----------------------------------
G-------------------------------------------------------------------------------
D-------------------------------------------------------------------------------
A-------------------------------------------------------------------------------
E-------------------------------------------------------------------------------


e-8-10-10-6---6-10-6----4-8-11-10-8-6--8-9-9-6---6-9-8-6-4--4--6--8--11--------
B-----------6--------6-------------------------6--------------------------------
G-------------------------------------------------------------------------------
D-------------------------------------------------------------------------------
A-------------------------------------------------------------------------------
E-------------------------------------------------------------------------------


e-8-10-10-6---6-10-6----4-8-11-10-8-6--8-9-9-6---6-9-8-9-13--8------------------
B-----------6--------6-------------------------6--------------------------------
G-------------------------------------------------------------------------------
D-------------------------------------------------------------------------------
A-------------------------------------------------------------------------------
E-------------------------------------------------------------------------------

e-13-13--11-10-11-13-13-11-----13-11-----11--11-10-8-10-----10-11-13------------
B--------------------------11--------11------------------11---------------------
G-------------------------------------------------------------------------------
D-------------------------------------------------------------------------------
A-------------------------------------------------------------------------------
E-------------------------------------------------------------------------------

e-11-10-11-13-13-11-----13-11----------11-13------------------------------------
B-------------------11--------11-13-14------------------------------------------
G-------------------------------------------------------------------------------
D-------------------------------------------------------------------------------
A-------------------------------------------------------------------------------
E-------------------------------------------------------------------------------

e-13-15-17-18-17-13--17-20-20-18-15-17-18-18-18--18-17-18-20--------------------
B-------------------------------------------------------------------------------
G-------------------------------------------------------------------------------
D-------------------------------------------------------------------------------
A-------------------------------------------------------------------------------
E-------------------------------------------------------------------------------
Login or Register to remove this ad.