Ads

Knight Man (Mega Man 6) Guitar Tab

Submitted: Jul 03, 2009 by Brainsick Fungus

5
Average: 5 (1 vote)
Download | Listen
Game: Mega Man 6
Composer(s): Yuko Kadota
Style: Transcription
Series: Mega Man

AutoScroll: Slow | Medium | Fast
Knight Man
By Yuko Takehara
Megaman VI
Tabbed by Brainsick Fungus
10/10/08



e--------------------------11-14-13-9-9-13--11-14-13-9-9-13--12--14--16--18--16-
B---------0---0-4-2-0-2---------------------------------------------------------
G-1-3-1-3---3-----------3-------------------------------------------------------
D-------------------------------------------------------------------------------
A-------------------------------------------------------------------------------
E-------------------------------------------------------------------------------

e----------11-14-13-9-9-13--11-14-13-9-9-13--4-6-7--6-4-7-9--7h9p7p6------------
B-11-9-8------------------------------------------------------------------------
G-------------------------------------------------------------------------------
D-------------------------------------------------------------------------------
A-------------------------------------------------------------------------------
E-------------------------------------------------------------------------------

e-4-6-7-6-7-4-7-11-9-7--7h9p7p6--4-6-7-6-7-4-7-11-9--7-9-6-11-------------------
B-------------------------------------------------------------------------------
G-------------------------------------------------------------------------------
D-------------------------------------------------------------------------------
A-------------------------------------------------------------------------------
E-------------------------------------------------------------------------------

e-11-12--11-12-9-11-------11-12--11-12-9-14-12-11-9-7-6-------------------------
B-------------------12-9--------------------------------------------------------
G-------------------------------------------------------------------------------
D-------------------------------------------------------------------------------
A-------------------------------------------------------------------------------
E-------------------------------------------------------------------------------

e---2---3---4-6-4-6-4-6-7-6-7-11-9-7-9-6----------------------------------------
B-4---4---4---------------------------------------------------------------------
G-------------------------------------------------------------------------------
D-------------------------------------------------------------------------------
A-------------------------------------------------------------------------------
E-------------------------------------------------------------------------------

e-4-6-4-6-7-6-4-3-------3-4-6-4-6-7-6-7-11-9-7-9-6-11---------------------------
B-----------------6-4-6---------------------------------------------------------
G-------------------------------------------------------------------------------
D-------------------------------------------------------------------------------
A-------------------------------------------------------------------------------
E-------------------------------------------------------------------------------
Login or Register to remove this ad.