Ads

Charge Man (Mega Man 5) Guitar Tab

Submitted: Jun 06, 2009 by Brainsick Fungus

5
Average: 5 (1 vote)
Download | Listen
Game: Mega Man 5
Composer(s): Mari Yamaguchi
Style: Transcription
Series: Mega Man

AutoScroll: Slow | Medium | Fast
Charge Man
By Mari Yamaguchi
Megaman V
Tabbed by Brainsick Fungus 
6/6/09

Play Part A twice then proceed to Part B

Intro
e----------------8--10-8---------15-14-12-14-15--(22)b24-22---------------------
B--------8-7-5-7--------------13------------------------------------------------
G-5--0-5-------------------12---------------------------------------------------
D-------------------------------------------------------------------------------
A-------------------------------------------------------------------------------
E-------------------------------------------------------------------------------

Part A
e-3--0-2-3-5-3-2-------0-0-------3-2-3-8----------------------------------------
B----------------3-3-1-----3---3------------------------------------------------
G-------------------------------------------------------------------------------
D----------------------------0---------------------------------------------X2---
A-------------------------------------------------------------------------------
E-------------------------------------------------------------------------------

e-8--7---5-------------------0-3--8--7---5-------12-12-10-----------------------
B------8---8-7----5--------3-----------8---8-7----------------------------------
G--------------7-----7---2---------------------7--------------------------------
D-------------------------------------------------------------------------------
A-------------------------------------------------------------------------------
E-------------------------------------------------------------------------------

Part B
e------10-8-7-8--------------7-8-7-5-------10-8-7-8--------------7-8-7-5--------
B-10------------8-8--8---5-8----------10------------8-8--8---5-8----------------
G----7-----------------5-----------------7-----------------5--------------------
D-------------------------------------------------------------------------------
A-------------------------------------------------------------------------------
E-------------------------------------------------------------------------------

e------10-8-7-8--------------7-8-7-5--5-5---------------------------------------
B-10------------8-8--8---5-8----------------------------------------------------
G----7-----------------5--------------------------------------------------------
D-------------------------------------------------------------------------------
A-------------------------------------------------------------------------------
E-------------------------------------------------------------------------------
Login or Register to remove this ad.