Ads

Title Screen (Mega Man Battle Network) Guitar Tab

Submitted: Feb 22, 2014 by ZeBaez

5
Average: 5 (1 vote)
Download | Listen
Game: Mega Man Battle Network
Composer(s): Akari Kaida
Style: Transcription
Series: Mega Man

AutoScroll: Slow | Medium | Fast
Name of song: Title Theme
Name of game: Mega Man Battle Network
Composer of song: Akari Kaida
Name of tabber: Alexis Baez
Date tab was made: February 22, 2014


e---------14---------------------------- x2
B------15----17-15-17-------------------
G---16----------------16~---------------
D---------------------------------------
A---------------------------------------
E---------------------------------------

e---------------------17---15-14-15-14--
B------15-17-15-14----------------------
G---16-------------14-------------------
D---------------------------------------
A---------------------------------------
E---------------------------------------

e----------------------14---------------
B---17-15-17--------15----17-15-17------
G------------16~--16----------------16~-
D---------------------------------------
A---------------------------------------
E---------------------------------------

e---------------------------------------
B------15-17-15-14----12~---------------
G---16-------------14-------------------
D---------------------------------------
A---------------------------------------
E---------------------------------------

e---------------------------17~---------
B---15-17-19-20-19-15-20-19-------------
G---------------------------------------
D---------------------------------------
A---------------------------------------
E---------------------------------------

e---------------------------------------
B---15-17-19-20-19-15-20-19-------------
G---------------------------19~---------
D---------------------------------------
A---------------------------------------
E---------------------------------------
Login or Register to remove this ad.

5 comments on Title Screen

welcome to the club of three

welcome to the club of three people who know that battle network exists

Glad all three of us are here

Glad all three of us are here though!

Hey guys!

5

Thanks for the welcome and are we seriously the only 3 people here? The whole series has such an amazing soundtrack. I might even make some full on covers/arrangements or whatever they're called.
I guess look forward to more of my tabs!

Juja and I did a cruddy

Juja and I did a cruddy little Battle Network cover once :-)

Running Through The Cyber World: http://www.auriplane.net/runment14.mp3

Not bad

That was pretty good. What tools do you use to put them together?
Also I hate how its hard to make the chorus not sound jazzy haha