Operation! (Mega Man Battle Network) Bass/Guitar Tab

Submitted: Jun 26, 2012 by Jacob31593 (Last updated: Jun 26, 2012)

5
Average: 5 (2 votes)
Download | Listen
Game: Mega Man Battle Network
Composer(s): Akari Kaida
Style: 2 or more instruments, Alternate picking, Arrangement, Pinch harmonics, Transcription
Series: Mega Man

This song is also called Battle Theme

AutoScroll: Slow | Medium | Fast

Operation! from Mega Man Battle Network
Composed by Akari Kaida
Tabbed by Jacob31593
June 26th 2012

not my favorite battle theme, but the most nostalgic since
for the longest time this was the only game i had on gameboy~

150BPM

BriefLead

E||-------||--------|-------|-------|-------|-------|-------|-------|-------|-------|-------|-------|-------|
B||-------||--------|-------|-------|-------|-------|-------|-------|-------|-------|-------|-------|-------|
G||-------||*-------|-------|-------|-------|-------|-------|-------|-------|-------|-------|-------|-------|
D||-------||*-------|-------|-------|-------|-------|-------|-------|-------|-------|-------|-------|-------|
A||-------||--------|-------|-------|-------|-------|-------|-------|-------|-------|-------|-------|-------|
E||-------||--------|-------|-------|-------|-------|-------|-------|-------|-------|-------|-------|-------|


  H         E.   E.   E      Q.       Q.       E   E      E.   E.   H         E     H.           Q       H         E.   E.   E   
-------------------------|--11~-----------------------|--------------------------|--------------------|-------------------------|
-----------10---12---14--|-----------14~------12--10--|-------10---12~--------L--|--L-----------------|-----------10---12---14--|
-------------------------|----------------------------|--13----------------------|--------------------|-------------------------|
-------------------------|----------------------------|--------------------------|--------------------|-------------------------|
-------------------------|----------------------------|--------------------------|--------------------|-------------------------|
-------------------------|----------------------------|--------------------------|--------------------|-------------------------|


   Q.       Q.       E   S  S     H         Q    E   S  S     E  E  E  E  E  E  E  E                                             
--14~------12~----------11-12-|--13~--------L----L--16-18-|--19-----------------------|-----|-----|-----|-----|-----|-----|-----|
--------------------14--------|---------------------------|---------------------------|-----|-----|-----|-----|-----|-----|-----|
------------------------------|---------------------------|---------------------------|-----|-----|-----|-----|-----|-----|-----|
------------------------------|---------------------------|---------------------------|-----|-----|-----|-----|-----|-----|-----|
------------------------------|---------------------------|---------------------------|-----|-----|-----|-----|-----|-----|-----|
------------------------------|---------------------------|---------------------------|-----|-----|-----|-----|-----|-----|-----|


      3x
------||
------||
-----*||
-----*||
------||
------||

LeadMostOfTheTime

                W                    H        Q.      T  T  T  T     W                    W                 
E||-------||----------------------|------------------------17-19-|--21~----------------|--L----------------|
B||-------||----------------------|------------------19-21-------|---------------------|-------------------|
G||-------||*--18~----------------|--L--------L------------------|---------------------|-------------------|
D||-------||*---------------------|------------------------------|---------------------|-------------------|
A||-------||----------------------|------------------------------|---------------------|-------------------|
E||-------||----------------------|------------------------------|---------------------|-------------------|


  E   E   E   E   E.   E  E.     E   E   E   E   E.   E  E.     E   E   E   E   E.   E.   E     W                 
-----19--18--19--18---16------|-----19--18--19--18---16------|-----19--18--19--18---16---21--|--L----------------|
------------------------------|------------------------------|-------------------------------|-------------------|
------------------------------|------------------------------|-------------------------------|-------------------|
------------------------------|------------------------------|-------------------------------|-------------------|
------------------------------|------------------------------|-------------------------------|-------------------|
------------------------------|------------------------------|-------------------------------|-------------------|


  E   E   E   E   E.   E  E.     E   E   E   E   E.   E  E.     E   E   E   E   E.   E  S  S  S  
-----19--18--19--18---16------|-----19--18--19--18---16------|-----19--18--19--21---16----------|
------------------------------|------------------------------|----------------------------17-19-|
------------------------------|------------------------------|----------------------------------|
------------------------------|------------------------------|----------------------------------|
------------------------------|------------------------------|----------------------------------|
------------------------------|------------------------------|----------------------------------|


   S  S  S  S  S  S  S  S  S  S  S  S  S  S  S  S     W                    W                   Q.      H        E   
--------------------------------------16----16-19-|--21----------------|--19----------------|--L------16--------L--|
--------------17-------17-19----17-19----19-------|--------------------|--------------------|----------------------|
--18----16-18----16-18-------18-------------------|--------------------|--------------------|----------------------|
-----18-------------------------------------------|--------------------|--------------------|----------------------|
--------------------------------------------------|--------------------|--------------------|----------------------|
--------------------------------------------------|--------------------|--------------------|----------------------|


                                                                                            PH                              
  H         E.   E.   E      W                    W                    H        E.   E.     E      E  E  E  E  E  E  E  E   
--L--------24---23---19--|--21----------------|--17----------------|--18--------L---21---------|--19-----------------------|
-------------------------|--------------------|--------------------|---------------------<>18--|---------------------------|
-------------------------|--------------------|--------------------|---------------------------|---------------------------|
-------------------------|--------------------|--------------------|---------------------------|---------------------------|
-------------------------|--------------------|--------------------|---------------------------|---------------------------|
-------------------------|--------------------|--------------------|---------------------------|---------------------------|


   Q    Q    Q    Q       Q    Q     Q     Q        Q    Q    Q    Q                Q    Q    Q    Q       Q    Q     Q     Q     
--21-------------------|------------19----18----|--16-------------------|-------|--21-------------------|------------19----18----|
--21-------------------|------------21----19----|--17-------------------|-------|--21-------------------|------------21----19----|
-----------------------|------------------------|-----------------------|-------|-----------------------|------------------------|
-----------------------|------------------------|-----------------------|-------|-----------------------|------------------------|
-----------------------|------------------------|-----------------------|-------|-----------------------|------------------------|
-----------------------|------------------------|-----------------------|-------|-----------------------|------------------------|


   Q    Q    Q    Q             3x
--16-------------------|--------||
--17-------------------|--------||
-----------------------|-------*||
-----------------------|-------*||
-----------------------|--------||
-----------------------|--------||

LeftBloop

               E   S E   S E   E   S  E   S  E      E   S  E   S  E   E   S  E   S  E     E   S E   S E   E   S  E   S  E   
E||-------||------------------------------------|--------------------------------------|-----------------------------------|
B||-------||---9-----9-----9--11-----11-----11--|--12-----12-----12--11-----11-----11--|--9-----9-----9--11-----11-----11--|
G||-------||*-----------------------------------|--------------------------------------|-----------------------------------|
D||-------||*-----11----11--------11-----11-----|------11-----11---------11-----11-----|-----11----11--------11-----11-----|
A||-------||------------------------------------|--------------------------------------|-----------------------------------|
E||-------||------------------------------------|--------------------------------------|-----------------------------------|


   E   S  E   S  E   E   S  E   S  E     E   S E   S E   E   S  E   S  E      E   S  E   S  E   E   S  E   S  E   
--------------------------------------|-----------------------------------|--------------------------------------|
--12-----12-----12--11-----11-----11--|--9-----9-----9--11-----11-----11--|--12-----12-----12--11-----11-----11--|
--------------------------------------|-----------------------------------|--------------------------------------|
------11-----11---------11-----11-----|-----11----11--------11-----11-----|------11-----11---------11-----11-----|
--------------------------------------|-----------------------------------|--------------------------------------|
--------------------------------------|-----------------------------------|--------------------------------------|


  E   S E   S E   E   S  E   S  E      E   S  E   S  E   E   S  E   S  E     E   S E   S E   E   S  E   S  E   
-----------------------------------|--------------------------------------|-----------------------------------|
--9-----9-----9--11-----11-----11--|--12-----12-----12--11-----11-----11--|--9-----9-----9--11-----11-----11--|
-----------------------------------|--------------------------------------|-----------------------------------|
-----11----11--------11-----11-----|------11-----11---------11-----11-----|-----11----11--------11-----11-----|
-----------------------------------|--------------------------------------|-----------------------------------|
-----------------------------------|--------------------------------------|-----------------------------------|


   E   S  E   S  E   E   S  E   S  E     E   S E   S E   E   S  E   S  E      E   S  E   S  E   E   S  E   S  E   
--------------------------------------|-----------------------------------|--------------------------------------|
--12-----12-----12--11-----11-----11--|--9-----9-----9--11-----11-----11--|--12-----12-----12--11-----11-----11--|
--------------------------------------|-----------------------------------|--------------------------------------|
------11-----11---------11-----11-----|-----11----11--------11-----11-----|------11-----11---------11-----11-----|
--------------------------------------|-----------------------------------|--------------------------------------|
--------------------------------------|-----------------------------------|--------------------------------------|


   S S S S S S S S  S S S S S S S S     S S S S S S S S  S S S S S S S S    E   S E   S E  Q    Q     
-------9----------------9-----------|-------9----------------9-----------|---------------------------|
---------9----------------9---------|---------9----------------9---------|--9-----9-----9------------|
-----9----------------9-------------|-----9----------------9-------------|---------------------------|
--11---------------11---------------|--11---------------11---------------|-----11----11--------------|
------------------------------------|------------------------------------|---------------------------|
------------------------------------|------------------------------------|---------------------------|


   E   S  E   S  E  Q    Q        S S S S S S S S  S S S S S S S S     S S S S S S S S  S S S S S S S S  
------------------------------|-------9----------------9-----------|-------9----------------9-----------|
--12-----12-----12------------|---------9----------------9---------|---------9----------------9---------|
------------------------------|-----9----------------9-------------|-----9----------------9-------------|
------11-----11---------------|--11---------------11---------------|--11---------------11---------------|
------------------------------|------------------------------------|------------------------------------|
------------------------------|------------------------------------|------------------------------------|


  S  S S S S S S S  S S  S S S S S S    E  E  E  E  E  E  E  E            S  E   S E  E  E  E  E  E         
---------9-----------------9---------|--8-----------------------|-----|--19-19--18-------------------|-----|
-------9--------------9-11-----------|--------------------------|-----|------------------------------|-----|
----10-------------10----------------|--------------------------|-----|------------------------------|-----|
--8----------------------------------|--------------------------|-----|------------------------------|-----|
-------------------------------------|--------------------------|-----|------------------------------|-----|
-------------------------------------|--------------------------|-----|------------------------------|-----|


   S  S  S  S S S S S  S  S  S  S S S S S           S  E   S E  E  E  E  E  E               3x
--19-19-18-19---------18-18-17-18---------|-----|--19-19--18-------------------|-----|------||
------------------------------------------|-----|------------------------------|-----|------||
------------------------------------------|-----|------------------------------|-----|-----*||
------------------------------------------|-----|------------------------------|-----|-----*||
------------------------------------------|-----|------------------------------|-----|------||
------------------------------------------|-----|------------------------------|-----|------||


RightBloop

               E  S E  S E   E  S  E  S  E     E  S E  S E   E  S  E  S  E     E  S E  S E   E  S  E  S  E   
E||-------||--------------------------------|-------------------------------|-------------------------------|
B||-------||--------------------------------|--9----9----9------------------|-------------------------------|
G||-------||*--9--9-9--9-9--11--9-11--9-11--|-----9----9----11--9-11--9-11--|--9--9-9--9-9--11--9-11--9-11--|
D||-------||*-------------------------------|-------------------------------|-------------------------------|
A||-------||--------------------------------|-------------------------------|-------------------------------|
E||-------||--------------------------------|-------------------------------|-------------------------------|


  E  S E  S E   E  S  E  S  E     E  S E  S E   E  S  E  S  E     E  S E  S E   E  S  E  S  E     E  S E  S E   E  S  E  S  E   
-------------------------------|-------------------------------|-------------------------------|-------------------------------|
--9----9----9------------------|-------------------------------|--9----9----9------------------|-------------------------------|
-----9----9----11--9-11--9-11--|--9--9-9--9-9--11--9-11--9-11--|-----9----9----11--9-11--9-11--|--9--9-9--9-9--11--9-11--9-11--|
-------------------------------|-------------------------------|-------------------------------|-------------------------------|
-------------------------------|-------------------------------|-------------------------------|-------------------------------|
-------------------------------|-------------------------------|-------------------------------|-------------------------------|


  E  S E  S E   E  S  E  S  E     E  S E  S E   E  S  E  S  E     E  S E  S E   E  S  E  S  E     E  S E  S E   E  S  E  S  E   
-------------------------------|-------------------------------|-------------------------------|-------------------------------|
--9----9----9------------------|-------------------------------|--9----9----9------------------|-------------------------------|
-----9----9----11--9-11--9-11--|--9--9-9--9-9--11--9-11--9-11--|-----9----9----11--9-11--9-11--|--9--9-9--9-9--11--9-11--9-11--|
-------------------------------|-------------------------------|-------------------------------|-------------------------------|
-------------------------------|-------------------------------|-------------------------------|-------------------------------|
-------------------------------|-------------------------------|-------------------------------|-------------------------------|


  E  S E  S E   E  S  E  S  E     S S S S  S S S S S S S S  S S S S    S S S S  S S S S S S S S  S S S S  
-------------------------------|---------------9----------------9---|---------------9----------------9---|
--9----9----9------------------|-----------------9----------------9-|-----------------9----------------9-|
-----9----9----11--9-11--9-11--|-------------9----------------9-----|-------------9----------------9-----|
-------------------------------|----------11---------------11-------|----------11---------------11-------|
-------------------------------|------------------------------------|------------------------------------|
-------------------------------|------------------------------------|------------------------------------|


  Q    Q     E   S  E   S  E     Q    Q     E   S  E   S  E     S S S S  S S S S S S S S  S S S S  
------------------------------|------------------------------|---------------9----------------9---|
------------10-----10-----10--|------------10-----10-----10--|-----------------9----------------9-|
------------------------------|------------------------------|-------------9----------------9-----|
----------------11-----11-----|----------------11-----11-----|----------11---------------11-------|
------------------------------|------------------------------|------------------------------------|
------------------------------|------------------------------|------------------------------------|


  S S S S  S S S S S S S S  S S S S    S S S S S  S S S S S S S S  S S  S                 S  E   S E  E  E  E  E  E         
---------------9----------------9---|-----------------9--------------9-13-|-----|-----|------------------------------|-----|
-----------------9----------------9-|---------------9-----------9-11------|-----|-----|--18-18--17-------------------|-----|
-------------9----------------9-----|------------10-----------------------|-----|-----|------------------------------|-----|
----------11---------------11-------|----------8--------------------------|-----|-----|------------------------------|-----|
------------------------------------|-------------------------------------|-----|-----|------------------------------|-----|
------------------------------------|-------------------------------------|-----|-----|------------------------------|-----|


   S  S  S  S S S S S  S  S  S  S S S S S           S  E   S E  E  E  E  E  E               3x
------------------------------------------|-----|------------------------------|-----|------||
--17-17-16-17---------16-16-15-16---------|-----|--18-18--17-------------------|-----|------||
------------------------------------------|-----|------------------------------|-----|-----*||
------------------------------------------|-----|------------------------------|-----|-----*||
------------------------------------------|-----|------------------------------|-----|------||
------------------------------------------|-----|------------------------------|-----|------||


Bass

     E  S S      E  S E.  S S E  S S S S E     E  S E.  S S E  E  E  E     E  S E.  S S E  S S S S E   
G||-----4-6-||------------4-6----4-6--------|-----------4-6-------------|-----------4-6----4-6--------|
D||---------||*------------------------4----|------------------8-----9--|------------------------4----|
A||---------||*--4--4-4-------4------7------|--4--4-4-------------------|--4--4-4-------4------7------|
E||---------||---------------------------7--|---------------6-----7-----|--------------------------7--|


  E  S E.  S S S S S S  S S E     E  S E.  S S E  S S S S E     E  S E.  S S E  E  E  E     E  S E.  S S E  S S S S E   
-----------4-6---9-8-9-11------|-----------4-6----4-6--------|-----------4-6-------------|-----------4-6----4-6--------|
--------------------------9-9--|------------------------4----|------------------8-----9--|------------------------4----|
--4--4-4-------4---------------|--4--4-4-------4------7------|--4--4-4-------------------|--4--4-4-------4------7------|
-------------------------------|--------------------------7--|---------------6-----7-----|--------------------------7--|


  E  S E.  S S S S S S  S S E     E  S E.  S S E  S S S S E     E  S E.  S S E  E  E  E     E  S E.  S S E  S S S S E   
-----------4-6---9-8-9-11------|-----------4-6----4-6--------|-----------4-6-------------|-----------4-6----4-6--------|
--------------------------9-9--|------------------------4----|------------------8-----9--|------------------------4----|
--4--4-4-------4---------------|--4--4-4-------4------7------|--4--4-4-------------------|--4--4-4-------4------7------|
-------------------------------|--------------------------7--|---------------6-----7-----|--------------------------7--|


  E  S E.  S S S S S S  S S E     E.  S S S S S E.  E.  E     E.  S S S S S E.  E.  E     E.  S E  S S E  S S S S E   
-----------4-6---9-8-9-11------|--------------------6---9--|---------------------------|-------------6------6--------|
--------------------------9-9--|--7---7---6-7-6-7----------|--9---9---8-9-8-9----------|-----------9------9----------|
--4--4-4-------4---------------|---------------------------|--------------------9---6--|----------------------7-9----|
-------------------------------|---------------------------|---------------------------|--9---9--------9----------7--|


  E.  S E  S S E  E  E  E     E.  S S S S S E.  E.  E     E.  S S S S S E.  E.  E     E.  S S S S S E.  E.  E   
-------------6-------------|--------------------6---9--|------------------------6--|---------------------------|
-----------9------8-----9--|--7---7---6-7-6-7----------|--------------------7------|---------------------------|
---------------------------|---------------------------|--9---9---8-9-8-9----------|--6---6---5-6-5-6-------8--|
--9---9--------6-----7-----|---------------------------|---------------------------|--------------------9------|


   E   E  E   E  E  E  E  E     E.  S E  S S S S S S S S E     E  S S E  S S E  E  E  E     E.  S E  S S E  S S S S E   
------13-----11-----9-----8--|-----------4-6-----4-6--------|------------4-6-------------|-----------4-6----4-6--------|
-----------------------------|-------------------------4----|-------------------8-----9--|------------------------4----|
--11------9------7-----6-----|--4---4----------4-----7------|--4--4-4--------------------|--4---4--------4------7------|
-----------------------------|---------------------------7--|----------------6-----7-----|--------------------------7--|


  E.  S E  S S S S S S  S S E     E.  S E  S S S S S S S S E     E  S S E  S S E  E  E  E     E  S S E  S S S S S S  S  S  S S  
-----------4-6---9-8-9-11------|-----------4-6-----4-6--------|------------4-6-------------|------------4-6---9-8-9-11-13-11-9-|
--------------------------9-9--|-------------------------4----|-------------------8-----9--|-----------------------------------|
--4---4--------4---------------|--4---4----------4-----7------|--4--4-4--------------------|--4--2-4---------------------------|
-------------------------------|---------------------------7--|----------------6-----7-----|-----------------------------------|


  S S S S S S S S S S S S S S S S  3x
--4-4-3-4-----4-6------------------||
----------------------------------*||
----------------------------------*||
-----------------------------------||




Duration Legend
---------------
W - whole
H - half
Q - quarter
E - 8th
S - 16th
. - note dotted


Tablature Legend
----------------
L - tied note
PH - pitch harmonic
~ - vibrato
Login or Register to remove this ad.

3 comments on Operation!

AWESOME!

5

Thank you so much! I've always been wanting to play this! One of many MMBN songs! I suck at playing high notes for some reason so I moved it down a bit. Thanks again for doing this btw :D

are you playing on an

are you playing on an acoustic or classical guitar? high notes are cake on an electric!

Acoustic

5

Yeah I know, Half the guitar blocks the high notes off. Is there even any point in them being there? Mine only goes up to 18 anyway. I'll try with my elec later. Thanks!