Cybeast Battle (Mega Man Battle Network 6) Bass/Guitar Tab

Submitted: Jun 01, 2012 by Jacob31593 (Last updated: Jun 01, 2012)

5
Average: 5 (3 votes)
Download | Listen
Game: Mega Man Battle Network 6
Composer(s): Yoshino Aoki
Style: 2 or more instruments, Alternate picking, Arrangement, Sweep picking, Tapping, Transcription
Series: Mega Man

This song is also called Decisive Battle

AutoScroll: Slow | Medium | Fast

Cybeast Battle from Megaman Battle Network 6
Composed by Yoshino Aoki
Tabbed by Jacob31593
June 1st 2012

If you try to record this you should probably record the second track with two guitars :D
Rhythm guitar is in drop-c, bass is in drop-d
170BPM

Lead

                     E  E   S  S  S  S  S  S  S  S  S  S  S  S     S  S  S  S  S  S  S  S  S  S  S  S  S  S  S S  
E||-------|-------|--------------------------------------------|-------------------------------------------------|
B||-------|-------|--------15----------15----------15----------|--15----------------------15-14-13-12------------|
G||-------|-------|-----------13-12-13----13-12-13----13-12-13-|-----13-12-13------------------------------------|
D||-------|-------|--------------------------------------------|--------------12----------------------12-11-10-9-|
A||-------|-------|--------------------------------------------|-----------------11-10-11------------------------|
E||-------|-------|--------------------------------------------|-------------------------------------------------|


     Q.      Q     Q.        Q.     Q    Q     S  S     Q.     Q     Q.        Q.     Q    Q    S  S     Q.      Q     Q.      
|-------------------------|-------------------------|-----------------------|------------------------|------------------------|
|-----------11----10------|--L------L---------------|--10-------------------|------------------------|----------11----10------|
|*------------------------|-------------------10-12-|----------8------------|------------------------|------------------------|
|*--12--------------------|-------------------------|---------------10------|--L------L---------8-10-|--12--------------------|
|-------------------------|-------------------------|-----------------------|------------------------|------------------------|
|-------------------------|-------------------------|-----------------------|------------------------|------------------------|


  Q.     Q    Q     S  S     Q.      Q     Q.        Q    Q    Q    Q        S  S  S  S  S  S S S  S  S  S  S S  S  S  S  
-------------------------|------------------------|----------------------|-----------------------------------------------|
--L------L---------------|--10------14----13------|--L----L----L---------|------------------------------------9-10-11-12-|
-------------------10-12-|------------------------|----------------------|--13-12-11-10-----------13-12-11-10------------|
-------------------------|------------------------|----------------------|-----------------------------------------------|
-------------------------|------------------------|----------------------|--------------11-10-9-8------------------------|
-------------------------|------------------------|----------------------|-----------------------------------------------|


  S  S  S  S  S  S S S  S  S S S  S S S S    E  E   E  E  E   E  E   E     E  E   E  E  E  Q.        Q    Q    H         
---------------------------------10-9-8-7-|------------------10---------|-------------------------|---------------------|
--9---------------------------------------|------------9---------9------|------------9------------|---------------------|
----12-11-10------------------------------|--7-----10---------------10--|--7-----10---------------|---------------------|
------------------------------------------|-----------------------------|------------------9------|------------9--------|
-------------11-10-9-8-11-10-9-8----------|-----------------------------|-------------------------|---------------------|
------------------------------------------|-----------------------------|-------------------------|---------------------|


  Q.     H        E     E  E  E  E  E  E  E  E     E  E  E  Q    E   S  S  S  S     Q.       Q.     E   S  S  
---------------------|--5--------6-----------8--|--L----------------------12-13-|--15~------13---------------|
---------------------|-----6-----------6--------|-----------8-------13-15-------|----------------------13-15-|
---------------------|--------7-----------7-----|-------------------------------|----------------------------|
--7------6--------L--|--------------------------|-------------------------------|----------------------------|
---------------------|--------------------------|-------------------------------|----------------------------|
---------------------|--------------------------|-------------------------------|----------------------------|


   E   E   E   E   E.   E.   E      H          Q.      E      Q     E   H         E      H.             Q     
----------15--17--15------------|-------------------------|--------------------------|--22~------------20----|
--17--18---------------18---17--|--17~--------15----------|--17----18--15~--------L--|-----------------------|
--------------------------------|---------------------14--|--------------------------|-----------------------|
--------------------------------|-------------------------|--------------------------|-----------------------|
--------------------------------|-------------------------|--------------------------|-----------------------|
--------------------------------|-------------------------|--------------------------|-----------------------|


   Q     Q     Q     Q        H.             Q           Q.     E   Q.      E         
--18----15----------------|-----------------------|----------------------------|-----|
--------------15----16----|--17~------------------|--13g15---------14~---------|-----|
--------------------------|-----------------16----|----------------------------|-----|
--------------------------|-----------------------|----------------------------|-----|
--------------------------|-----------------------|----------------------------|-----|
--------------------------|-----------------------|----------------------------|-----|


  S  S  S  S  S  S  S  S  S  S  S  S  S  S  S  S     S  S  S  S  S  S  S  S  S  S  S  S  S  S  S S  
-------------------------------------------------|-------------------------------------------------|
-------------15----------15----------15----------|--15----------------------15-14-13-12------------|
----------13----13-12-13----13-12-13----13-12-13-|-----13-12-13------------------------------------|
-------12----------------------------------------|--------------12----------------------12-11-10-9-|
----11-------------------------------------------|-----------------11-10-11------------------------|
-------------------------------------------------|-------------------------------------------------|


  S  S  S  S  S  S  S  S  S  S  S  S  S  S  S  S     S  S  S  S  S  S  S  S  S  S  S  S  S  S  S  S  
-------------------------------------------------|--------------------------------------------------|
-------------15----------15----------15----------|--15----------------------15-14-13-12-13-14-15-16-|
----------13----13-12-13----13-12-13----13-12-13-|-----13-12-13-------------------------------------|
-------12----------------------------------------|--------------12----------------------------------|
----11-------------------------------------------|-----------------11-10-11-------------------------|
-------------------------------------------------|--------------------------------------------------|


  E   E   E  E   E   E  E   E      E   E   E   E  E   E   E   E               3x
-------------------------------|---------------------15--14--13--|-----|------||
---------------------------12--|----------15--14-----------------|-----|------||
----------------13-------------|--15--14-------------------------|-----|-----*||
-----15--12---------15---------|---------------------------------|-----|-----*||
-------------------------------|---------------------------------|-----|------||
-------------------------------|---------------------------------|-----|------||

Harmony

                                        Q.      Q     Q.         S  S  S  S  S  S  S  S  S  S  S  S  S  S  S  S  
E||-------|-------|-------|-------||-------------------------|--22-21-20-19-22-21-20-19-22-21-20-19-18-17-16-15-|
B||-------|-------|-------|-------||-----------15----14------|--------------------------------------------------|
G||-------|-------|-------|-------||*--10--------------------|--------------------------------------------------|
D||-------|-------|-------|-------||*------------------------|--------------------------------------------------|
A||-------|-------|-------|-------||-------------------------|--------------------------------------------------|
E||-------|-------|-------|-------||-------------------------|--------------------------------------------------|


   Q.      Q     Q.         S  S  S  S  S  S  S  S  S  S  S  S  S  S  S  S     Q.      Q     Q.      
------------------------|--22-21-20-19-22-21-20-19-22-21-20-19-18-17-16-15-|------------------------|
--13--------------------|--------------------------------------------------|----------15----14------|
----------11------------|--------------------------------------------------|--10--------------------|
----------------13------|--------------------------------------------------|------------------------|
------------------------|--------------------------------------------------|------------------------|
------------------------|--------------------------------------------------|------------------------|


   S  S  S  S  S  S  S  S  S  S  S  S  S  S  S  S     Q.      Q     Q.         S  S  S  S  S  S  S  S  S  S  S  S  S  S  S  S  
--22-21-20-19-22-21-20-19-22-21-20-19-18-17-16-15-|----------14----11------|--22-21-20-19-22-21-20-19-22-21-20-19-18-17-16-15-|
--------------------------------------------------|--13--------------------|--------------------------------------------------|
--------------------------------------------------|------------------------|--------------------------------------------------|
--------------------------------------------------|------------------------|--------------------------------------------------|
--------------------------------------------------|------------------------|--------------------------------------------------|
--------------------------------------------------|------------------------|--------------------------------------------------|


   S  S  S  S  S S S  S S S S S S  S S  S     S  S  S  S  S S S  S S S S S S S S S     E  E   E   E  E   E   E   E   
--------------13-----13-------------------|--------------16-----16-----------------|--------------------------------|
------------------------------------------|----------------------------------------|--------------------12----------|
--------------------------------0-12-0-13-|----------------------------------------|-------------10---------10------|
--15-14-13-12-----------------------------|--15-14-13-12---------------------------|---------12-----------------12--|
------------------------------------------|----------------------------------------|--14----------------------------|
------------------------------------------|----------------------------------------|--------------------------------|


   E  E   E   E  E   Q.         S  S  S  S  S S S  S Q     E   E      S  S  S  S  S S S  S S S S S S S S S  
----------------------------|--------------13-----13--------------|--------------16-----16-----------------|
----------------------------|-------------------------------------|----------------------------------------|
-------------10-------------|-------------------------------------|----------------------------------------|
---------12-----------------|--15-14-13-12-----------9------------|--15-14-13-12---------------------------|
--14----------------11------|-----------------------------10--11--|----------------------------------------|
----------------------------|-------------------------------------|----------------------------------------|


  E   E  E  E  E   E   E  E      E   E   E   E  E   E  S  S  S  S     E   E   E   E   E   E   E   E   
--8--------------------------|------10--13--12--------------------|--------------10----------12------|
-----10--8-------------------|---------------------13----------10-|------10--11------11----------11--|
------------9----------------|--12---------------------9-10-12----|--10------------------10----------|
------------------10------7--|------------------------------------|----------------------------------|
----------------------10-----|------------------------------------|----------------------------------|
-----------------------------|------------------------------------|----------------------------------|


   E   E   E   E   E.   E.   E      E   E  E   E   E   E   E  E      E   E   E   E   E   E   E  E   
------10--12--13-------10-------|---------------------15--12-----|----------10---------------------|
--13------------------------13--|--13----------------------------|--13--10-------------------------|
------------------10------------|------14------------------------|----------------------12--10--9--|
--------------------------------|--------------------------------|--------------10-----------------|
--------------------------------|-------------15--12-------------|------------------12-------------|
--------------------------------|--------------------------------|---------------------------------|


                                                            T                 T                        T                 T     
  E   E   E  E   S  S  S  S  S  S  S  S     E   E   E   E   S  S  S  S  S  S  S  S     E   E   E   E   S  S  S  S  S  S  S  S  
----------------15-13-10----------------|------------------18-13-------------------|------------------19-16-12----------------|
----------------------------------------|------------------------15----------------|---------------------------12-15-12-------|
-------------------------14-12-10-------|---------------------------14-15----------|------------------------------------------|
--9------12--9--------------------12----|----------12---------------------15-------|------------------------------------18-14-|
-----10------------------------------12-|--13----------13--------------------17-13-|--14--12--14--11--------------------------|
----------------------------------------|------13----------------------------------|------------------------------------------|


   Q.       E   H                        E   E   E  E   E   E  E  E     E   E   E  E   E   E  E   E   
--------------------------|-----------|---------16---------16--------|---------16---------16-----15--|
--------------------------|-----------|------------------------------|-------------------------------|
--14~----------12~--------|-----------|-----13---------13------------|-----13---------13-------------|
-----------14-------------|-----------|------------------------------|-------------------------------|
--------------------------|-----------|------------------------------|-------------------------------|
--------------------------|-----------|------------------------------|-------------------------------|


  E   E   E  E   E   E  E  E          E   E   E  E   E   E  E  E     E   E   E  E   E   E  E   E      Q    E  Q    E   E  E   
---------16---------16--------|----|---------16---------16--------|---------16---------16-----15--|--------------------------|
------------------------------|----|------------------------------|-------------------------------|--------------------------|
-----13---------13------------|----|-----13---------13------------|-----13---------13-------------|-------------------10-----|
------------------------------|----|------------------------------|-------------------------------|--12-------9--------------|
------------------------------|----|------------------------------|-------------------------------|--------------------------|
------------------------------|----|------------------------------|-------------------------------|--------------------------|


   E   E   E   E   E   E   E   E   3x
-----------------------------------||
-----------------------------------||
--------------------------11--12--*||
--12------12--13--14--15----------*||
------11---------------------------||
-----------------------------------||

Rhythmy Cybeast Noises

                                7   7   7   7   7   7   7   7   7   7    7    7    7    7                              
     E  E  E  E  E  E  E  E     E   E   E   E   E   E   E   E   E   E    E    E    E    E     E  E  E  E  E  E  E  E   
D||--------------------------|-------------------------------------------------------------|--------------------------|
A||--------------------------|-------------------------------------------------------------|--------------------------|
F||--4--------4--------------|-------------------------------------------------------------|--4--------4--------------|
C||--2--------2--------------|-------------------------------------------------------------|--2--------2--------------|
G||--2--------2--------------|--0s--1s--2s--3s--4s--5s--6s--7s--8s--9s--10s--11s--12s--13--|--2--------2--------------|
C||--2--------2--------------|--0s--1s--2s--3s--4s--5s--6s--7s--8s--9s--10s--11s--12s--13--|--2--------2--------------|


                                                                                    PM PM                      PM PM  
  7   7   7   7   7   7   7   7   7   7    7    7    7    7                                                           
  E   E   E   E   E   E   E   E   E   E    E    E    E    E       E  E  E  E  E  E  E  E     E  E  E  E  E  E  E  E   
-------------------------------------------------------------||---------------------------|--------------------------|
-------------------------------------------------------------||---------------------------|--------------------------|
-------------------------------------------------------------||*--------------------------|--------------------------|
--0s--1s--2s--3s--4s--5s--6s--7s--8s--9s--10s--11s--12s--13--||*-----------------2--------|-----------------2--------|
--0s--1s--2s--3s--4s--5s--6s--7s--8s--9s--10s--11s--12s--13--||---2--2--2--2--2--2--2--2--|--2--2--2--2--2--2--2--2--|
--0s--1s--2s--3s--4s--5s--6s--7s--8s--9s--10s--11s--12s--13--||---2--2--2--2--2-----2--2--|--2--2--2--2--2-----2--2--|


                    PM PM                                                PM PM                      PM PM  
  E  E  E  E  E  E  E  E     E  E  E  E  E  E  Q       E  E  E  E  E  E  E  E     E  E  E  E  E  E  E  E   
--------------------------|-------------------------|--------------------------|--------------------------|
--------------------------|-------------------------|--------------------------|--------------------------|
--------------------------|-------------------------|--------------------------|--------------------------|
-----------------2--------|--0--0--0--0--0----------|-----------------2--------|-----------------2--------|
--2--2--2--2--2--2--2--2--|-----------------3--1----|--2--2--2--2--2--2--2--2--|--2--2--2--2--2--2--2--2--|
--2--2--2--2--2-----2--2--|-------------------------|--2--2--2--2--2-----2--2--|--2--2--2--2--2-----2--2--|


                    PM PM                                                                                       
  E  E  E  E  E  E  E  E     E  E  E  E  E  E  E  S S    E  E  Q    Q    Q       Q.     H        S S            
--------------------------|---------------------------|-----------------------|------------------x-x-|----|----|
--------------------------|---------------------------|--------5--------------|--5------3--------x-x-|----|----|
--------------------------|---------------------------|--4-----2--------------|--2------0--------x-x-|----|----|
-----------------2--------|--0--0--0--0--0--0--0--3-3-|--2----------2----2----|------------------x-x-|----|----|
--2--2--2--2--2--2--2--2--|---------------------------|--2----------2----2----|------------------x-x-|----|----|
--2--2--2--2--2-----2--2--|---------------------------|--2--------------------|------------------x-x-|----|----|


                                                        \1/                                                                 
  H        H           Q.     H        E     E  E  E  S Q.     E.     E   E   E  E  E  E  E  E     E  E  E  E  E  E  E  E   
--------------------|---------------------|------------------------|----------------------------|--------------------------|
--5-----------------|--5------3-----------|------------------------|--8b--8b--------------------|--------------------------|
--2-----------------|--2------0-----------|-------------4----------|----------------------------|--7--------5--------------|
-----------2--------|---------------------|--------2--2------------|----------------------------|--7--------5--------------|
-----------2--------|---------------------|------------------------|----------------------------|--5--------3--------------|
--------------------|---------------------|------------------------|----------------------------|--------------------------|


  W  W                                                                                                       
  E  Q.     E  E  E    E     E.   E.   E   E.   E.   E      E.   E.   E.   E.   E.   S    H.           Q     
--------------------------|------------------------------|-----------------------------|--------------------|
---------------------0g7--|--5b---5b---5b--3b---3b---3b--|--5b---5b---5b---5b---5b-----|--8------------7----|
--7--7------7-------------|------------------------------|-----------------------------|--------------------|
--------------------------|------------------------------|-----------------------------|--------------------|
--------------------------|------------------------------|-----------------------------|--------------------|
--------------------------|------------------------------|-----------------------------|--------------------|


  Q     Q    Q    Q       Q     Q    Q    Q       Q     Q    Q     Q             E  E  E  E  E  E  E  E   
-----------------------|-----------------------|--7~---------5~---------|-----|--------------------------|
-----------------------|-----------------------|------------------------|-----|--5-----------------------|
--5~-------------------|--6~-------------------|------------------------|-----|--4-----------4-----------|
-----------------------|-----------------------|------------------------|-----|--2-----------2--1--1--1--|
-----------------------|-----------------------|------------------------|-----|--2-----------2--1--1--1--|
-----------------------|-----------------------|------------------------|-----|--2--5--6--7--2--1--1--1--|


                                                         PM   PM    PM PM PM  PM PM PM PM PM                             
  E  E  E  E  E  E  E  E     E  E  S  S  S  S S  S  S  S E    E     E  E  E   E  E  E  E  E     E  E  E  E  E  E  E  E   
--------------------------|--------------------------------------|---------------------------|--------------------------|
--5-----------------------|--------------------------------------|---------------------------|--5-----------------------|
--4-----------4--5--5--5--|--------------------------------------|---------------------------|--4-----4-----------------|
--2-----------2--3--3--3--|--------0s-1s-7s-1-0s-1s-7s-0---------|---------------------------|--2-----2-----------------|
--2-----------2--3--3--3--|--------0s-1s-7s-1-0s-1s-7s-0---------|---------------------------|--2--2--2--2--5--5--------|
--2--5--6--7--2--3--3--3--|--------0s-1s-7s-1-0s-1s-7s-0-6--7g8--|--9--8--7--10--9--8--7--8--|--2--2--2--2--5--5--------|


  7   7   7   7   7   7   7   7   7   7    7    7    7    7                             
  E   E   E   E   E   E   E   E   E   E    E    E    E    E     Q.     E  E  E  E   E   
-------------------------------------------------------------|-------------------------|
-------------------------------------------------------------|--5---------------8s--1--|
-------------------------------------------------------------|--4---------------7s--0--|
-------------------------------------------------------------|--2---------------5------|
--0s--1s--2s--3s--4s--5s--6s--7s--8s--9s--10s--11s--12s--13--|--2---------------5------|
--0s--1s--2s--3s--4s--5s--6s--7s--8s--9s--10s--11s--12s--13--|--2------5--8--5--5------|


  7   7   7   7   7   7   7   7   7   7    7    7    7    7     
  E   E   E   E   E   E   E   E   E   E    E    E    E    E   3x
--------------------------------------------------------------||
--------------------------------------------------------------||
-------------------------------------------------------------*||
--0s--1s--2s--3s--4s--5s--6s--7s--8s--9s--10s--11s--12s--13--*||
--0s--1s--2s--3s--4s--5s--6s--7s--8s--9s--10s--11s--12s--13---||
--0s--1s--2s--3s--4s--5s--6s--7s--8s--9s--10s--11s--12s--13---||


Charles De Basse

                                 7   7   7   7   7   7   7  7  7  7  7  7  7                                               
     E  E  E  E  E  E  E  E      T.  T.  T.  T.  T.  T.  T. T. T. T  T  T  T S S S E  E  E  E     E  E  E  E  E  E  E  E   
G||--------------------------|-----------------------------------------------------------------|--------------------------|
D||--------------------------|--16s-15s-14s-13s-12s-11s-10s-9s-8s-7s-6s-5s-4-------------------|--------------------------|
A||-----------------------0--|--------------------------------------------------------4--3--4--|-----------------------0--|
D||--------------6--5--8-----|-------------------------------------------------3-2-1-----------|--------------6--5--8-----|


  E  E  E  E  E  E  E  E       E  E  E  E  E  E  E  E     E  E  E  E  E  E  E  E     E  E  E  E  E  E  E  E   
--------------------------||---------------------------|--------------------------|--------------------------|
--------------------------||*-----------------------4--|--------------------------|-----------------------4--|
--2--4--3--4--2--4--3--4--||*--5--5--6--5--5--8--5-----|--5--5--6--5--5--8--5-----|--5--5--6--5--5--8--5-----|
--------------------------||---------------------------|-----------------------6--|--------------------------|


  E  E  E  E  E  E  E  E     E  E  E  E  E  E  E  E     E  E  E  E  E  E  E  E     E  E  E  E  E  E  E  E   
--------------------------|--------------------------|--------------------------|--------------------------|
--------------------------|-----------------------4--|--------------------------|-----------------------4--|
--5--5--6--5--5-----5-----|--5--5--6--5--5--8--5-----|--5--5--6--5--5--8--5-----|--5--5--6--5--5--8--5-----|
-----------------6-----6--|--------------------------|-----------------------6--|--------------------------|


  E  E  E  E  E  E  E  E     E  E  E  E  E  E  E  E     E  E  E  E  E  E  E  E     E  E  E  E  E  E  E  E   
--------------------------|--------------------------|--------------------------|--------------------------|
--------------------------|-----------------------4--|--------------------------|-----------------------4--|
--5--5--6--5--5-----5-----|--5--5--6--5--5--8--5-----|--5--5--6--5--5--8--5-----|--5--5--6--5--5--8--5-----|
-----------------6-----6--|--------------------------|-----------------------6--|--------------------------|


  E  E  E  E  E  E  E  E     E  E  E  E  E  E  E  E     E  E  E  E  E  E  E  E     E  E  E  E  E  E  E  E   
--------------------------|--------------------------|--------------------------|--------------------------|
--------------------------|-----------------------4--|--------------------------|-----------------------4--|
--5--5--6--5--5-----5-----|--5--5--6--5--5--8--5-----|--5--5--6--5--5--8--5-----|--5--5--6--5--5--8--5-----|
-----------------6-----6--|--------------------------|-----------------------6--|--------------------------|


  E  E  E  E  E  E  E  E     E  E  E  E  E  E  E  E     E  E  E  E  E  E  E  E     E  E  E  E  E  E  E  E   
--------------------------|--------3--------------3--|--------5-----------0--5--|--------7--------------7--|
--------------------------|--------------------3-----|--------------------------|--------------------7-----|
--5--5--------------------|--1--1-----1-----1--------|--3--3-----3-----3--------|--5--5-----5--0--5--------|
-----------6--6-----3--3--|--------------3-----------|--------------5-----------|--------------------------|


  E  E  E  E  E  E  E  E     E  E  E  E  E  E  E  E     E  E  E  E  E  E  E  E     E  E  E  E  E  E  E  E   
--------5-----------0--5--|--------4-----------------|--------------------------|--------------------------|
--------------------------|--------------------------|--------5-----------------|--------6-----------------|
--3--3-----3-----3--------|--2--2-----2-----2--5--2--|--------------------------|--------------------2-----|
--------------5-----------|--------------5-----------|--5--5-----5--5--5--8--5--|--6--6-----6--2--2-----6--|


                            W                                                                                                    
  E  E  E  E  E.  E.  E     Q.     Q.     Q       E  E  E  E  E  E  E  E     E  E  E  E  E  E  E  E     E  E  E  E  E  E  E  E   
-------------------------|---------------------|--------------------------|--------------------------|--------------------------|
--------7-----7---5------|--7------------------|--------------------------|--------------------------|--------------------------|
-------------------------|---------0------3----|--5--------5--------5-----|--6--------6--------6-----|--5--------5--------5-----|
--7--7-----7----------7--|---------------------|--------------------------|--------------------------|--------------------------|


  E  E  E  E  E  E  E  E     E  E  E  E  E  E  E  E     E  E  E  E  E  E  E  E     E  E  E  E  E  E  E  E   
--------------------------|--------------------------|--------------------------|--------------------------|
--------------------------|--------------------------|--0-----------------------|--0-----------------------|
--6--------6--------6-----|--5-----------------1--0--|--------------2--4--3--4--|--------------------1--0--|
--------------------------|-----------3--6--5--------|-----------6--------------|-----------3--6--5--------|


  E  E  E  E  E  E  E  E   3x
---------------------------||
--------------------------*||
--2--4--3--4--2--4--3--4--*||
---------------------------||




Duration Legend
---------------
W - whole
H - half
Q - quarter
E - 8th
S - 16th
T - 32nd
. - note dotted
|-n-|  - n-tuplets


Tablature Legend
----------------
L - tied note
x - dead note
g - grace note
b - bend
\n/ - tremolo bar dip
S - shift slide
s - legato slide
/ -  slide into from below or out of upwards
~ - vibrato
W - wide vibrato
T - tapping
Login or Register to remove this ad.

2 comments on Cybeast Battle

cool, you finished it sounds

5

cool, you finished it
sounds good man!

thanks!~

thanks!~